REQUESTED: Love Story Instrumental

Discussion in 'Hindi Guitar Tabs - Submit or Request' started by ajs12902, Feb 15, 2006.

  1. ajs12902

    ajs12902 New Member

    ANy one got tabs for the love story instrumental.... by Henry mancini.. requested..
     
  2. mudgalbharat

    mudgalbharat Silence Must be Heard

    Tabs - Love Story

    Hello

    I have already posted the tabs for LOVE STORY at http://www.indianguitartabs.com/showthread.php?t=1648

    I am pasting the same here again.

    regards

    Bharat Mudgal

    Love Story - OST
    --------------------------------------------------------------------------------

    LOve Story - OST
    Tabbed by Bharat Mudgal
    yahooID: mudgalbharat
    Dedication : to the one i HATE

    --------------------------------------------------------------------------
    --------------------------------------------------------------------------
    --3--------3--3-------------------3--3-----------------------2--2---------
    -----0--0-------------------0--0--------0--1--0---------------------------
    ----------------------------------------------------3--3--3---------------
    --------------------------------------------------------------------------



    ----------------------------------------------------------------------------
    ----------------------------------------------------------------------------
    ----------2--2-----------------------0--0-------------------0--0------------
    -------------------0--------------------------------------------------------
    ----3--3--------3-----3-----1--1--1-------------------1--1--------1--3--1---
    ----------------------------------------------------------------------------



    ------------------------------------------------------------------
    ------------------------------------------------------------------
    ------------------------------0----2------------------------------
    -----------4--4-------------------------1-------0-----------------
    --0--0--0---------------------------------------------------------
    ------------------------------------------------------------------



    ---------------------------------------------------------------------
    ---------------------------------------------------------------------
    ---------------------3--------3--3-------------------3--3------------
    ------------------------0--0-------------------0--0--------0--1--0---
    ---------------------------------------------------------------------
    ---------------------------------------------------------------------



    --------------------------------------------------------------------------
    --------------------------------------------------------------------------
    -----------2--2-------------------2--2-----------------------0--0---------
    -------------------------------------------0------------------------------
    --3--3--3-------------------3--3--------3-----3-----1--1--1---------------
    --------------------------------------------------------------------------



    ------------------------------------------------------------------------
    ------------------------------------------------------------------------
    ----------0--0------------------------------------------0----2----------
    -------------------------------------4--4-------------------------4-----
    ----1--1--------1--3--1-----0--0--0-------------------------------------
    ------------------------------------------------------------------------



    -----------------------------------------------------------------
    --0-----------------------1----3------------4-------------1------
    ------------------------------------0------------------0-----0---
    -----------------------------------------------------------------
    -----------------------------------------------------------------
    -----------------------------------------------------------------



    -------------------------------------------------------------------------
    ---------------1--4--1-----3-------------3------------------------3------
    --0--2--2--------------------------------------------0--0------3-----3---
    --------------------------------------3-----3-----3----------------------
    -------------------------------------------------------------------------
    -------------------------------------------------------------------------



    -----------------------------------------------------------------------
    --1-------------1---------------1--3--------3-----4--------------------
    -------------2-----2-----3------------0--3----------------------0--3---
    -------------------------------------------------------------3---------
    -----------------------------------------------------------------------
    -----------------------------------------------------------------------



    ------------------------------------------------------------------------
    -----------------1------------------------------------------------------
    --3----2------3---------------------------------------0----0------------
    --------------------1-----0----------0--1--0-----7------------3--1--0---
    -------------------------------------------8----------------------------
    ------------------------------------------------------------------------



    --------------------------------------------------------------
    --------------------------------------------------------------
    ----------------0---------------------------------------------
    -------------2-----1-----4------------------------------------
    --3-----------------------------------------------------------
    --8-----------------------------------------------------------


    Tabbed by Bharat Mudgal

    --------------------------------------------------------------------------
    --------------------------------------------------------------------------
    --3--------3--3-------------------3--3-----------------------2--2---------
    -----0--0-------------------0--0--------0--1--0---------------------------
    ----------------------------------------------------3--3--3---------------
    --------------------------------------------------------------------------



    ----------------------------------------------------------------------------
    ----------------------------------------------------------------------------
    ----------2--2-----------------------0--0-------------------0--0------------
    -------------------0--------------------------------------------------------
    ----3--3--------3-----3-----1--1--1-------------------1--1--------1--3--1---
    ----------------------------------------------------------------------------



    ---------------------------------------------------------3---------
    -------------------------------------------------------------------
    ------------------------------0----2------------0------------------
    -----------4--4-------------------------4--------------------------
    --0--0--0----------------------------------------------------------
    -------------------------------------------------------------------
     

Share This Page