REQUEST [SOLO Part]

Discussion in 'Hindi Guitar Tabs - Submit or Request' started by Dipta, Apr 23, 2015.

  1. Dipta

    Dipta New Member

    Song - Dil Aaj Kal
    Film - Purani Jeans

    can anyone please provide the lead part of the song?
    no chords. just the lead portion in tab format.
     
  2. Rākar baḷakedār

    Rākar baḷakedār New Member

  3. fishtank

    fishtank Member

    INTRO
    E----------------------4----------------------------------------------------------4-----------------7----------------4--------------12(harmonic)-
    B-----------------5---------5--5/7-----------------7-------------------------------4-----------------4-----------------4---------------------------
    G------------4-----------------------------------8----------------------4----------------4---------------4------------------4-----------------------
    D-------6------------------------------------9----------------------6------------------------6----------------6-----------------6-------------------
    A--7-------------------------------------9----------------------0-------------------------------------------------------------------------------------
    E------------------------------------------------------------5-----------------------------------------------------------------------------------------


    E--------------------------12-----------------------------------------------------------7-------------------------------------------------------------4-
    B--------------------------------------12------10/12----12---------------------4---------4-------------------4--------------4--------------------5-
    G-------------------------------------11-------9-/11----11---------------4---------------------4----------------------------------6---------------4-
    D----------------9-------------------9------------------------------6/8--------------------------------6----------------6---------------6----------6-
    A---------11--------------------------------------------------------------------------------------------------------------------------------------------
    E--12---------------------------------------------------------------------------------------------------------------------------------------------------



    E-----4---6-7--11--9--7--6--4--2--4----2/4---6-7--11--9--7--6--6h7p6--4--------------------
    B-------------------------------------------------------------------------------------------------------
    G-------------------------------------------------------------------------------------------------------
    D-------------------------------------------------------------------------------------------------------
    A-------------------------------------------------------------------------------------------------------
    E-------------------------------------------------------------------------------------------------------


    is this what you are looking for?
     

Share This Page