request of neele neele ambar

Discussion in 'Hindi Guitar Tabs - Submit or Request' started by Deeshan, Sep 5, 2007.

  1. Deeshan

    Deeshan New Member

    Do sm1 have the chord n tab of neelé neelé ambar par ,,the whole song plz,,n its intro as well,,thnx
     
  2. jazzbox

    jazzbox His X Ln C 1000CC

    already submited on IGT keep search
     
  3. jazzbox

    jazzbox His X Ln C 1000CC

    Code:
    Full "LEAD" Tabs for Neele Neele Ambar Par 
    --------------------------------------------------------------------------------
    
    Neele Neele Ambar Par [by Kishore Kumar,film-kalakar]
    
    Tip : Play with a soft pick..like Fender 100-Shell/150-Confetti.If u have a Padel[Zoom-505/Korg-AX 1500G/GT-6 etc.],mix the sound like:
    
    Dist:Acoustic
    Gain:25
    Wah:No
    Pitch:Your Choice
    Mod:Chorus
    Rev:Hall
    Delay:(little)echo
    
    Lead - 1[Starting-Intro]
    
    e---------------------------------------------------------------------------
    B---------------------------------------------------------------------------
    G-----2---3-2--3-2--3-2--3-2-----0-2-0-----0--------------------------------
    D--0-------------------------------------3---3-----2-3-2--------------------
    A---------------------------------------------------------------------------
    E-----------------------------------------------------------3/10---10-------
    
    Lead - 2[In-Between's-1]
    
    e-------------------------
    B-5-6-5-------5-----------
    G------7---5-7------------
    D-------------------------
    A-------------------------
    E-------------------------
    
    Lead - 3[In-Between's-2]
    
    e-------------------------
    B--0h6-5-5h6p5\3----------
    G-------------------------
    D-------------------------
    A-------------------------
    E-------------------------
    
    Lead - 4[In-Between's-3]
    
    e-------------------------
    B-------5h6h8--6-5vvvvv---
    G--5-7--------------------
    D-------------------------
    A-------------------------
    E-------------------------
    
    Lead - 5[In-Between's-4]
    
    e----------8-8h10-10-10-10---
    B------8-10------------------
    G--9-10----------------------
    D----------------------------
    A----------------------------
    E----------------------------
    
    Lead - 6[In-Between's-5]
    
    e----------8-10--10/12--12-12-12----
    B------8-10-------------------------
    G--9-10-----------------------------
    D-----------------------------------
    A-----------------------------------
    E-----------------------------------
    
    Lead - 7[In-Between's-6]
    
    e-----------------------------
    B-----------------------------
    G-----------------------------
    D--10---9-10-9-10-9-10--9vv---
    A-----------------------------
    E-----------------------------
    
    Lead - 8
    
    e---------------------------------------------------------------------------
    B--------5h8--6-5---------5h8--6-5-------------------6-5-------5------------
    G-7\3---7--------5--7-7--7--------5--7-7------7--7-7----5--5-5---7----------
    D-7\3--7----------------7---------------------------------------------------
    A---------------------------------------------------------------------------
    E---------------------------------------------------------------------------
    
    e--------------------
    B--------------------
    G----5---------------
    D--7--8-7-5---------- [Play this part fast]
    A----------8-7-8-5---
    E--------------------
    
    Lead - 9[Fill-1]
    
    e-----------------------------
    B-----------------------------
    G--9-10-9-7--7-9--------------
    D----------10-----------------
    A-----------------------------
    E-----------------------------
    
    Lead - 10[Fill-2]
    
    e-----------------------------
    B-----------------------------
    G--7-9-7-9-7-9-7-------------- [like: la lala lalalala]
    D-----------------------------
    A-----------------------------
    E-----------------------------
    
    
    The song starts here...slowly
    N.C. 
    Neele neele ambar par [Lead - 2]
    N.C.
    chaand jab aaye [Lead - 3]
    N.C.
    pyaar barasaae [Lead - 4]
    Dm
    hamako tarasaaye 
    N.C.
    Aisaa koii saathii ho [Lead - 5]
    N.C.
    aisaa koii premii ho [Lead - 6]
    N.C.
    pyaas dil kii [Lead - 7]
    Dm
    bujhaa jaae
    
    Intro : [Lead - 8]
    
    The song starts here...with usual pace
    Dm C [or play lead-9] {Note:Actually you should play the lead} 
    Neele neele ambar par
    Dm [or play lead-10] 
    chaand jab aaye
    Dm C [or play lead-9] 
    pyaar barasaae
    Dm [or play lead-10] 
    hamako tarasaaye
    Dm
    Aisaa koii saathii ho
    C
    aisaa koii premii ho
    Bb A Dm
    pyaas dil kii bujhaa jaae
    
    Dm C [or play lead-9] 
    Neele neele ambar par
    Dm [or play lead-10] 
    chaand jab aaye 
    Dm C [or play lead-9] 
    pyaar barasaae
    Dm [or play lead-10] 
    hamako tarasaaye
    
    Intro : {The Guitar Part,u r waiting for!!These parts are very fast}
    
    Lead - 11
    
    e---------------------------------------------------------------------------
    B--------------------------------------------------------------5--5-6-5vv---
    G----------------------------------4-5--5-5-5-5-5-5-7-5-5---5-7--7----------
    D-------5-7--7-7-7-7-7-7-8-7-7----7-----------------------------------------
    A--5-7-8--------------------------------------------------------------------
    E---------------------------------------------------------------------------
    
    e------------5-5-5--3-3-3--1-1-1------
    B-----5------6-6-6--5-5-5--3-3-3---2--
    G--5-7-7vv---7-7-7--5-5-5--3-3-3---2--
    D----------------------------------2--
    A-------------------------------------
    E-------------------------------------
    
    [Play this part below..as fast as possible]
    
    e-------------------------------
    B-------------------------------
    G--2-3-2--0-2-0--0--------------
    D---------------3-3--2-3-2--0---
    A-------------------------------
    E-------------------------------
    
    Note:
    ====
    You may also play the tripple notes parts as below :[sounds exactly pure!!]
    Play with Up-Down contineous strokes to make it like fast strumming.
    e--------------------------
    B--6-6-6--5-5-5------------
    G---------------7-7-7--5vv-
    D--------------------------
    A--------------------------
    E--------------------------
    
    In fact each note of the lead-11 part should be played as Up-Down contineous strokes.
    
    [Now the intro violin part]
    
    Lead - 12
    
    e------------------------7-8-7-5-------------------
    B-------5---------------8--------8-6-5-6-6/10vv----
    G---7--7-7----7-6-5vv--5---------------------------
    D--7-------7-7-------------------------------------
    A--------------------------------------------------
    E--------------------------------------------------
    
    
    Dm 
    Ho, uunche uunche parvat
    C
    jab chuumate hai ambar ko
    
    Bb 
    pyaasaa pyaasaa ambar
    Gm Bb Dm A Dm
    jab chuumataa hai saagar ko [2x]
    
    Dm C [or play lead-9] 
    Pyaar se kasane ko
    Dm [or play lead-10] 
    baahon men basane ko
    Dm C [or play lead-9] 
    dil meraa lalachaaye
    Dm [or play lead-10] 
    koI to aa jaaye
    aisaa koI saathii ho
    aisaa koI premii ho
    pyaas dil kii bujhaa jaae
    Neele neele ...
    
    Intro : [Comes the second stormy part!!]
    
    Lead -13
    
    e ----------------------------------------------------------6--6---
    B ----------------------------------------------------------6--6---
    G ----------------------4-5--4-5-4--4----------------------7--7---
    D --7-7-7-7-7-7-7-7-7--7-----------7-7--5-7-5--4-5-4-----8--8---
    A -----------------------------------------------------7/8--8--8---
    E ----------------------------------------------------------6--6---
    
    e-------------
    B-------------
    G-------------
    D-------------
    A-----5/17---- [Play these slides while strumming each fret in a contineous
    E-5/15-------- Up-Down series of strokes]
    
    Intro : then Play Dm twice [Each vigorous Up-Down Strokes..best..listen to the song]
    
    Intro : Lead -12
    
    The rest goes in the same pattern [Thank God !!].In the next intro part play the Lead -11 & Lead-12 part...but leaving the first 4 notes from Lead-11.

    Posted on
    http://www.indianguitartabs.com/showthread.php?t=10218&page=59
    by: DRBILLA
     
  4. smanwar

    smanwar New Member

    Hello - Song Notes

    Hi All
    Am a beginner to guitaring. Just learning some notes and scales currently. So if anyone can provide some notes on any Hindi song it would be great.

    Am still too young for chords.

    Regards
    Anwar
     
  5. UjSen

    UjSen *#!EVIL*!!

    since ur a begennier^^^ its termed as "playing the guitar" and not guitaring

    search nd look around theres a lot of stuff arnd here>
     
  6. Deeshan

    Deeshan New Member

    thnx jazzbox
     
  7. jazzbox

    jazzbox His X Ln C 1000CC

    search through GooGle.CoM
    or u can seach on IGT also (but its better u use GooGle for tabs on IGT)


    There is a Archive link
    http://www.indianguitartabs.com/archive/index.php/f-6.html
     
  8. jazzbox

    jazzbox His X Ln C 1000CC

  9. arischie

    arischie New Member

    fantastic

    the above tab is fantstic only i am abeginner and have to get the pace on
     
  10. Sash

    Sash New Member

Share This Page