REQUEST: My List of 10 :)

Discussion in 'Hindi Guitar Tabs - Submit or Request' started by AhsenBhai, Aug 31, 2007.

  1. AhsenBhai

    AhsenBhai New Member

    Hello these are some nice guitar songs...can u please post the tabs?

    1. Tanha hu - Vish
    2. Aasman ko - Ali zafar
    3. Woh Yaadein - Zil
    4. Ooncha - Noori
    5. Allah ke Bande (for god sakes not the chords...the TABS please!)
    6. ANY song of the movie Pardes
    7. Aap ki kashish -Himesh Reshemiya
    8. Pap Kehte hain
    9. Tere Liye - Veer Zara
    10. DON THEME

    Im still new at the guitar so if its possible can anyone please post the TABS?
     
  2. AhsenBhai

    AhsenBhai New Member

    omg does anyone have these tabs???
     
  3. jazzbox

    jazzbox His X Ln C 1000CC

    No.

    no tabs posted on IGT before

    i will post it soon

    but why u wanna play all the tabs ? while u r a new guitar player

    let me know which tab u wanna play now
     
  4. AhsenBhai

    AhsenBhai New Member

    Aasman ko - Ali zafar
    OR
    Tere Liye - Veer Zara

    If you can do any of these 2 songs for now, i would really appreciate it :)

    Thanks!!
     
  5. Yoosh

    Yoosh New Member

    i believe tere liye is aready on IGT- search for it i'm sure you'll find it
     
  6. jazzbox

    jazzbox His X Ln C 1000CC

    Tabs - Tere Liye

    Code:
    Song: TereLiye
    Movie: Veer Zara
    Tabbed by: Nishant
    Tuning: Concert Pitch
    
    Note: 9:9 means that the 9th fret is played quickly twice
    
    -----------------------------------------------------------------
    ---9-12p10p9--9:9-------10p9-----------------------------------
    -------------------------------11p9h11--11:11------------------
    ----------------------------------------------------------------
    -----------------------------------------------------------------
    -----------------------------------------------------------------
    
    
    
    -----------------------------------------------------------------
    -9--------------------------------------------------------------
    ------11:11----9:9---8----------8--9---------------------------
    -------------------------11-------------------------------------
    -----------------------------------------------------------------
    -----------------------------------------------------------------
    
    
    
    -----------------------------------------------------------------
    -----------------------------------------------------------------
    --9---8---------------------9---8-------------------------------
    ----------9:9-/11:11-------------9:9/11:11----------------------
    -----------------------------------------------------------------
    -----------------------------------------------------------------
    
    -----------------------------------------9---11----------------
    ------------------------9--10/12-------------------------------
    ---------8-9-/-11----------------------------------------------
    ---11----------------------------------------------------------
    ---------------------------------------------------------------
    ---------------------------------------------------------------
    
    --12p11p9-------------9---9:9----------------------------------
    ----------------12-------------------------9h10p9-------9--9:9-
    ----------------------------------------------------11----------
    -----------------------------------------------------------------
    -----------------------------------------------------------------
    -----------------------------------------------------------------
    
    -----------------------------------------------------------------
    -----------------------------------------------------------------
    ---10:10 (6 times fast)---9:9---8:8---8----------------
    ------------------------------------------------------11--------
    -----------------------------------------------------------------
    -----------------------------------------------------------------
    
    
    -----------------------------------------------------------------
    -----------------------------------------------------------------
    ---10:10 (6 times fast)---9:9---8:8---8----------------
    ------------------------------------------------------11--------
    -----------------------------------------------------------------
    -----------------------------------------------------------------
    
    
    
    and the song kicks off...woth Roop Kumar Rathoods voice 
    
    Chorus
    
    Tere liye hain hum jiye...
    -----------------------------------------------------------------
    ---9-12p10p9--9:9-------10p9-----------------------------------
    -------------------------------11p9h11--11:11------------------
    ----------------------------------------------------------------
    -----------------------------------------------------------------
    -----------------------------------------------------------------
    
    
    har aansoon piye
    -----------------------------------------------------------------
    -9--------------------------------------------------------------
    ------11:11----9:9---8----------8--9---------------------------
    -------------------------11-------------------------------------
    -----------------------------------------------------------------
    -----------------------------------------------------------------
    
    
    Dil main magar jalte rahe
    -----------------------------------------------------------------
    -----------------------------------------------------------------
    --9---8---------------------9---8-------------------------------
    ----------9:9-/11:11-------------9:9/11:11----------------------
    -----------------------------------------------------------------
    -----------------------------------------------------------------
    
    Chahat ke diye
    -----------------------------------------9---11----------------
    ------------------------9--10/12-------------------------------
    ---------8-9-/-11----------------------------------------------
    ---11----------------------------------------------------------
    ---------------------------------------------------------------
    ---------------------------------------------------------------
    
    Tere liye ...tere liye
    --12p11p9-------------9---9:9----------------------------------
    ----------------12-------------------------9h10p9-------9--9:9-
    ----------------------------------------------------11----------
    -----------------------------------------------------------------
    -----------------------------------------------------------------
    -----------------------------------------------------------------
    
    
    Stanza
    
    Zindagi leke aayi hai..beete din ki kitaab
    -------------------------------------------------------------------------
    ---------------------9--11---9------------------------------------------
    -------10:10-10/11-------------11:11---10:10/11/8--------------8------
    ---11--------------------------------------------------9 9/11------------
    --------------------------------------------------------------------------
    --------------------------------------------------------------------------
    Ghere hain ab humein....yaadein behisaab
    ---------------------------------------------------------------------------
    ----------------------11`--11--9--11/12/11---10:10:10--12--10--9-----
    -------10:10/--11--------------------------------------------------------
    --11---------------------------------------------------------------------
    --------------------------------------------------------------------------
    --------------------------------------------------------------------------
    
    Bin pooche.... mil gaye kitne saare jawaab
    ------9-8-9---------------------------------------------------------
    ---9----------9---11--12--11---11/12/11--9-----------------------
    ------------------------------------------------9------8/9--8--------
    ---------------------------------------------------11--------------
    -----------------------------------------------------------------
    -----------------------------------------------------------------
    
    
    The second stanza is also like that.... :-))
    
    

    Submited on 10-05-2004, 05:10 AM

    follow this link

    http://www.indianguitartabs.com/showthread.php?t=3058
     
  7. jazzbox

    jazzbox His X Ln C 1000CC


    Aasman ko - Ali zafar

    i dun listen that song!
     

Share This Page