request:ma rewa

Discussion in 'Hindi Guitar Tabs - Submit or Request' started by anuj, May 29, 2004.

  1. anuj

    anuj New Member

    hi
    can some one plz give me tabs for "ma rewa" n other indian ocean songs
    :rockon:
    anuj
     
  2. MARS

    MARS Mars Ji...Finally!!!!!

    Vidhan Singhai.....Help Required..

    In Fact i m looking for the same...
    I thing Mr. Vidhan Singhai cal Help us!!!!!!!!!
     
  3. ats

    ats Oldie

    anyone has the tabs for the intro of "bhor" --- by indian ocean ???

    ats
     
  4. vidhansinghai

    vidhansinghai New Member

    Here I am!!!

    Hi guys!

    Here is Vidhan Singhai. Just give me tonight. You'll have the tab and chords tomorrow.

    For the time being, the start is with D chord played upside and the end of that beat is D downside. err... I don't know if you get it.

    PS: Who are you Mr. Mars? And how do you know that I could be of any help at all? Thanks BTW.
     
  5. MARS

    MARS Mars Ji...Finally!!!!!

    am u r college junior...
    from the great IET (DAVV) :beer:

    A friend of Abhay...his classmate..
    and i know that u play this beautiful song beautifully!!!

    am waiting for the chords and tabs...
    specially the starting piece...

    Thanx..
     
  6. mudgalbharat

    mudgalbharat Silence Must be Heard

    Another one from DAVV

    Hey Guys ... good to know fellow Indorians...

    So Mr. Singhai...when are you sending the tabs...which song is it however, i do not recall it.

    regards

    Bharat Mudgal
     
  7. MARS

    MARS Mars Ji...Finally!!!!!

    so u r also from DAVV...

    Ma Reva is a fundoo song by Indian Ocean...
    Special the guitar pieces at the starting and in the middle of the song...
    hail indian ocean.. :rock:
     
  8. Abby

    Abby New Member

    Hail davv

    hi fellas,

    Here is another fellow IETian, good to see our traffic on the site, 'am a beginer though in this field. Vidhan we're waiting for ur post :)
     
  9. vidhansinghai

    vidhansinghai New Member

    Yo guys! Here's the stuff. My comments are in there, sorry but it's not exact. Sushmit has a new style which he plays very fast :nw: . So difficult to catch up there. See if you can help.

    Code:
    Maa rewa (Kandisa)
    Indian Ocean
    Tabbed by: Vidhan Singhai ([url]http://www.geocities.com/vidhansinghai[/url])
    
    The song and the tab moves around Dmaj (X00232).
    
    The strumming with which the song starts is also Dmaj.
    4 strokes up and one down.
    While striking up, make the chord dead by releasing slightly.
    
    While playing up, only strike the thinnest 3 strings (GBE),
    while playing down, only strike the ADG strings.
    
    The first guitar piece:
    <part A begin>
    E-------------------------------------------------------------------------
    B------7-10-8-7---------7-10-8-7-----------7-10-8-7---------7-10-8-7------
    G--7-9----------9-7-7-9----------9~----7-9----------9-7-7-9----------9~---
    D-------------------------------------------------------------------------
    A-------------------------------------------------------------------------
    E-------------------------------------------------------------------------
    
    E-------------------------------------------------------------------------
    B---------7---7-----------------------------------------------------------
    G-7-9-9-9---9---9--9/10-9-7-7-7-------------------------------------------
    D-------------------------------------------------------------------------
    A-------------------------------------------------------------------------
    E-------------------------------------------------------------------------
    <part A end>
    
    Again the D strumming continues
    
    The song starts like this:
    E-------------------------------------------------------------------------
    B---------------------------------------7---------------------------------
    G--7-7-9-9/11-9-7-7-9-9-9-7-6-----9-9-9---9-7-6-7-9-9/10------------------
    D-----------------------------9-9-----------------------------------------
    A-------------------------------------------------------------------------
    E-------------------------------------------------------------------------
    
    E-------------------------------------------------------------------------
    B---------------------------------------7---------------------------------
    G--7-7-9-9/11-9-7-7-9-9-9-7-6-----9-9-9---9-7-6-6h7--7-7-7-7--------------
    D-----------------------------9-9-----------------------------------------
    A-------------------------------------------------------------------------
    E-------------------------------------------------------------------------
    
    The guitaring starts again:
    
    Hey guys, sorry, but I need sometime here.  Mr. Sushmit is really getting
    on my nerves.  How can one play like that????  uffffffffff.
    
    So I've got close, but I know many plucks are missing.  Please help.
    
    [n] => listen to the song and try playing that many times. I can't even count.
    E----------------------------7-----------7----7-7/10-10-9[n]----7-8[n]----
    B----10-10[n]-8-10-8-7---7-8---10[n]--10---10----------------10-----------
    G-7--------------------9--------------------------------------------------
    D-------------------------------------------------------------------------
    A-------------------------------------------------------------------------
    E-------------------------------------------------------------------------
    
    Till here is correct (err.. almost), the following is not exact but suits
    the rythm.  Help required here!!!
    
    E--7----7-------------------------------------------------------------------
    B----10---10-8-7-8-7--------------------------------------------------------------
    G--------------------9[5]-----------------------------------------------------
    D-------------------------------------------------------------------------
    A-------------------------------------------------------------------------
    E-------------------------------------------------------------------------
    
    <Repeat part A>
     
  10. vidhansinghai

    vidhansinghai New Member

  11. anuj

    anuj New Member

    thanx a lot vidhan
    had been looking for this gr8 song for long.
    :nw:
     
  12. vidhansinghai

    vidhansinghai New Member

    The pleasure is all mine.

    I was getting worried though, over a hundred views but no replies. Thanks.
     
  13. ananth222

    ananth222 Beginner

    Ma Rewa Tabs on wholenote

    Hi,
    I've made my version of tabs for "Ma Rewa" on the wholenote guitar site (you can even listen to the tabs on the site). Check out my tabs:

    http://www.wholenote.com/cgi-bin/page_view.pl?l=8363&p=1

    I play this song with my band here, and also Melancholic Ecstacy by Indian Ocean. Will tabt hat too when I get time.
    ~A
     
  14. anuj

    anuj New Member

    gr8 lesson

    hi ananth
    just took a look at your lesson at wholenote it's excellent
    a very good lesson indeed.
    will look forward to more such lessons
    :nw:
     
  15. ananth222

    ananth222 Beginner

    hi,
    thanx for the reply. will post more IO songs soon.
    ~A
     
  16. Natasia

    Natasia ...

    gr888 job guys..... had been looking for these tracks for a loooooooonnnnnggggggg time..... keep up the gud work.... :) :) :)
     
  17. anuj

    anuj New Member

    hi guys
    u all must have heard hill le le in kandisa,anyone got chords of that number it's a good one..
    looking forward to more IO numbers
    :) :) :)
     
  18. eadgbe

    eadgbe New Member

    ananth, m sorry to say but i ws dissappointed by ur tabs... nt gud enough....!!
     

Share This Page