Request for tabs of " Main shayar to nahi "

Discussion in 'Hindi Guitar Tabs - Submit or Request' started by ccrazyblack, Mar 3, 2005.

  1. ccrazyblack

    ccrazyblack New Member

    Hello everyone, Can you please post the tabs for the song " main shayar to nahi " from bobby and heard again in HUM TUM.... I need tabs and not chords, I dont have any idea about chords, all I can do is play tabs. Maybe I should join some music school or some teacher to learn chords. :rockon: :rockon:
     
  2. madhura

    madhura pani poori yum yum ....

    hey ccrazyblack ... try this .....

    Am------------------------Dm----
    mai shayar to nahi , magar aye hasin

    --------------------E7--------
    jabse dekha maine tuzko, muzko

    -----------------Am-----
    shayari e e e aa gayi ...

    music tabs : B E E, E F# G, F# E E, E F# G, F# C E F#, G F# E .

    Am------------------Dm-----------
    pyar kaa naam maine suna tha magar

    ----------------------Am----------
    pyar kya hai yeh muzko nahi thi khabar

    Am-------------------Dm----------
    mai to ulza raha ulzanonki tarah

    ------E7--------------Am---------
    dosato mein raha dushmanon ki tarah

    Am-----------------
    mai dushman to nahi .....
     
  3. madhura

    madhura pani poori yum yum ....

    @ bandbaaja, or J or anyone....
    is this in right key ???
    or should it be Em Am B7 instead of Am Dm and E7 ???
    i am little confused :think:
     
  4. tsetop

    tsetop New Member

    e------------6--5--5--5s10----------------------------
    b---------6-----------------11--10-----13--11---11-10-----11---
    g-----7-7---------------------------12-----------------12-
    d---7---------------------------------------------
    a--------------------------------------
    mai shayar to nahi magar aye hasin ja sei dekha
    e-------------------------------------
    b--10-------------10-------10---------11-10-----
    g------12--11-11-----10-10-------------------12--10---9-7--
    d-------------------------------12-12-----
    a-------------------------------------
    maine tujko mujkho shayare agayei
    i will send next bit later
     
  5. madhura

    madhura pani poori yum yum ....

    opps sorry, i didnt read you post fully ..... i guess you requested notes, ...well other ppl can use the chords if they want .... its a beautiful song ..... tsetop's version yet .... will post mine soon. ......
     
  6. good tsetop's posting tabs, I can't understand CHORDS
     
  7. good work tsetops
    keep up the good work
     
  8. ccrazyblack

    ccrazyblack New Member

    hey , thanks for the tabs , I willl try them out tonite ... and play it for my lady love ... she is just mad after this song ...... Thanks everyone ... thanks to all my rock cousins..... and keep rocking .....
     
  9. tsetop

    tsetop New Member

    e--5-5-5-6-5-5-6----------------------------------8-6p5-5-5-5---------
    b-----------------8-8-8-8-8-8--5h8-8-8-8-5-5-5-8------
    g---------------------------------------
    d-----------------------------------
    a-------------------------------------
    pyar ka nam mai nei suna tha magar pyar kya hai yeh muj kho nahi thi khabar
    e--10-10-----10--------------------------------
    b---------13----10-10-11-10--------11-10---10---------------------10-10---------
    g-----------------------------12-10-------------12-10-9-9-9999-10---------7--
    d-----------------------------------------
    a-------------------------------------------
    mai to ulja raha uljano ki taraha doston mei raha dushmano ki taraha
    i think rest of all same
     
  10. n2o

    n2o New Member

    Good Job, Thanxx..
     
  11. saraachaand

    saraachaand New Member

    Main Shayer tho nahi Tabs

    Thanks dear, I love the song and appreciate your effort-Sarath
     
  12. ravi rockz

    ravi rockz New Member

    ------Em------------------------------Am----
    mai / shayar to nahi , magar aye hasin

    -----------D---------- ----B--------
    jab se dekha maine tujko, mujko

    -----B7th-------------Em--
    shayari.............aa gayi ...

    ------Em------------------------------Am----
    mai / ashiq to nahi , magar aye hasin

    -----------D---------- ----B--------
    jab se dekha maine tujko, mujko

    -----B7th------------Em--
    ashiqi.............aa gayi ...

    Em------------------------Am-----------
    pyar kaa naam maine suna tha magar

    ------------------------------Em----------
    pyar kya hai yeh muzko nahi thi khabar

    --------------------------A----------
    mai to uljha raha uljhanonki tarah

    -----------B---------------------------Em--
    dosato mein raha dushmanon ki tarah

    --------Em---------
    mai / dushman to nahi .....

    NOTE- guitar tuned on E note

    STRUMNG PATTERN- 1D- 2D3D (D- down)
     

Share This Page