Request : Aaroh - Sawaals first solo

Discussion in 'Pakistani Guitar Tabs - Submit or Request' started by bayhosh, Sep 15, 2004.

  1. bayhosh

    bayhosh New Member

    Hey guys...can somebody plz help me out with sawaals first solo, starts off about at 2:48 on the track...ive got the rest of the song tabbed out...but this is left...
     
  2. invincible2k

    invincible2k New Member

    Author/Artist: AaroH
    Title: Sawaal
    Transcribed by: Shani
    Email: [SNIP]
    Date: 29-September-2003
    URL: www.pakmanzil.com
    Comments : This tabs is totally my work all suggestions, corrections
    welcome at [SNIP]

    Chords: E(779997), C(335553), D(557775), E5(779xxx), C5(8,10,10,xxx)

    Intro:

    e-7--------------------
    B-9--------------------
    G-9-----9-----7----7--- Repeat 3 times then
    D-9--9-----7----7----7-
    A-7--------------------
    E-7--------------------

    e-------------------------------
    B-------------------------------
    G-------------------------------
    D-------------------------------
    A--------5----------------------
    E-5-6-7-----7-6-5-6-7-6-5-3-0---

    Main riff
    (quite easy to Play place your
    Index finger to grip all 9th frets notes and
    use other fingers to play notes other than 9th frets)


    e----------12----------10----------------------------------------------------------
    B-------9-------------------------12-------9----------------------------------------
    G----9-------------9----------9----------9------9-11--------9-----9----9------------
    D-9------------9----------9-----------9-------9-------9--10----9-----9---9----------
    A-----------------------------------------------------------------------------------
    E-----------------------------------------------------------------------------------

    (Play Chords String by String)

    (E)ik sawaal saa uth(C)taa raha(E)
    (E)kya kabhee too ho sak(C)aa mair(E)a
    lagtaa (D)hai yeh pyaar (E)mera
    yeh pyaar nah(D)iii(C)eee sacha mera(E)a

    (E)munn main jaagay yeh (C)armaan(E)
    (E)raatein kaatnaa naa (C)aasaan(E)
    jeeta raha(D)a iss aas (E)par
    taktaa raha(D)aa(C)aa tairee raah (E)par

    Riff 2

    + Chords in {Curly Bracket} Means Full Dead/Muted.
    + Chords in [Large Bracket] Means Half Dead/Muted.
    e-------------------------------------------------
    B-------------------------------------------------
    G-{9}-{9}-9-9-9-9--7-[7]-{7}--------7-------------
    D-{9}-{9}-9-9-9-9--7-[7]-{7}--------7-------------
    A-{7}-{7}-7-7-7-7--5-[5]-{5}--------5-------------
    E-{7}-{7}-7-7-7-7--5-[5]-{5}--5--7--5-------------

    Play riff 2 in Background.
    [
    tujh ko chaahaa hai
    buss yeh gunaah hai
    ]

    (E)gar jo to (D)naa aa par (C)naa day mujh (D)ko yeh saz(E)aaa

    Main riff


    (E)kya kabee too ho sak(C)aa mair(E)aa


    SOLO:

    Play Riff 2 in Background.
    [
    dil ko haaro naa
    buss kisi ko chaaho naa
    ]

    (E)jo to chaah(D)
     
  3. bayhosh

    bayhosh New Member

    yaar i have all this, but ismein wohi cheez missing hai which im looking for, the first solo, thanks tho
     
  4. framed

    framed New Member

    hes asking for the lead solo ? right ?

    just learn to play it on your own :S twill take time to tab it out :S
     

Share This Page