Req- venmadhi venmathiea nillu from minnale

Discussion in 'Tamil Guitar Tabs - Submit or Request' started by BASH LULU, Jan 3, 2014.

  1. BASH LULU

    BASH LULU New Member

    I got many song tabs from IGT.. its really a wow..

    somebody post tabs for the venmathi venmadhiyea nillu song from minalle..
     
  2. jimihndrx

    jimihndrx Guitar Hero

    Here's my take.. Pallavi part only(corrections are most welcome)

    *Venmathi Venmathiye Nillu
    Nee Vaanukkaa Maegathukkaa Sollu

    E|------------------------------------------------------------
    B|--3-3-2-2-0-0-0------------------3-3-2-2-0-0-0--------------
    G|------------------3h4-4----6---------------------3h4-4------
    D|------------------------------------------------------------
    A|------------------------------------------------------------
    E|------------------------------------------------------------

    *Vaanamthaam Unnudaiya Ishtam Enraal
    Maegathukillai Oru Nashtam

    E|--------------------------------------------------------------
    B|--3-3-2-2-0-0-0--------------------3-3-2-2-0-0-0------------
    G|------------------3h4-4---6s9-7---------------------3h4-4----
    D|--------------------------------------------------------------
    A|--------------------------------------------------------------
    E|--------------------------------------------------------------

    *Unnai Indrodu Naan Marapenae Naan Marapenae
    E|--------------------------------------------------------------
    B|--5-5-4---5-----4-4s5-7-7-5-----5-5-4---5-----4-4s5-7-7-5--
    G|--------------------------------------------------------------
    D|--------------------------------------------------------------
    A|--------------------------------------------------------------
    E|--------------------------------------------------------------

    *Unnaalae Nenjil Pootha Kaathal
    Maelum Maelum Thunbam Thunbam Vaendaam

    E|-------------------------------------------------------------
    B|-8-8-7-7-5-5-3----------------------------------------------
    G|-----------------4---6---4---6---4---6---4---6-----b7---6---
    D|-------------------------------------------------------------
    A|-------------------------------------------------------------
    E|-------------------------------------------------------------

    here 'b' is bend up & release.

    jimihndrx
     
  3. BASH LULU

    BASH LULU New Member

    wow....
    thankz gi... really awesome.. expecting for charanam too..
     
  4. vs.suresh

    vs.suresh New Member

    Surprise Jimi.... Nice to see your post for tabs too.....

     
  5. jimihndrx

    jimihndrx Guitar Hero

    thanks BASH..i'wl cover it soon i get some time.
     
  6. jimihndrx

    jimihndrx Guitar Hero

    yes for a change i did the tabs..but anywayz lazy enough for tabs:yawn:
    also i think that it might need some corrections.
     

Share This Page