REQ: tabs of DIL HARAY (jal)

Discussion in 'Hindi Guitar Tabs - Submit or Request' started by Love_Demise, Jun 16, 2004.

  1. Love_Demise

    Love_Demise New Member

    hiz all
    i really need the intro and lead part of the song DIL HARAY by band name JAL
    i will be waiting for the replies
    Tc all c yaa
     
  2. guitarboy

    guitarboy New Member

    Hi..I was fooling around with my guitar and this is what I came up with. I think it sounds a lot like the intro riff to Dil Haray by Jal. This is my first tab EVER so go easy on me will ya? ;)

    e -------3-3-2-2-3-5-3-2-----------
    B -----0----------------------------
    G ----------------------------------
    D ----------------------------------
    A ---2------------------------------
    E -3--------------------------------

    It's basically a G chord, sounds better if you let the strings ring through.

    Thats all so far :( Anyone had better luck with it?
     
  3. salman128

    salman128 New Member

    You got it

    I got that part too... Its the part after this that has me struggling
     
  4. invincible2k

    invincible2k New Member

    Author/Artist: Jal
    Title: Dil haarey
    Transcribed by: Shani
    Email: [SNIP]
    Date: 13-March-2004
    URL: www.pakmanzil.com
    Comments : This tabs is totally my work all suggestions, corrections
    welcome at [snip]

    Chords: G(355433), C(335553), D(557775), Bm(224432)

    Intro Play G C D Chords then

    Play G couple of times with muted G chord


    G C
    Ankhoon say jub bhi ho teri aankhein juda

    G C D
    mun say jub bhi ho tera man khafa

    Bm D C
    tau ji pukare, pukare tujhe

    Bm C G
    man ghabraye a a a bulaye tujhe

    Chorus:

    G D C
    k dil harey pukare tujheeey

    G C D
    mun ja re manale mujhey

    G D C
    sunta re lagale galay

    G Bm D G
    koh ja re tu gaa lay sub re


    G C
    tere bina zindagi laagey saza

    G C D
    tera saath ho yeh saza laagay jaza

    Bm D C
    tau barte jaye tau rastey saare

    Bm C G
    duniya peechay tau hum hai aagay

    Repeat Chorus

    Solo......

    Repeat Chorus

    Dil Haray- JaL

    ankhon se, jab bhi hon teri ankhen juda
    mann se, jab bhi ho tera mann khafa
    tau jee pukare, pukare tujhe
    mann ghabraye, bulaye tujhe
    ke dil haare, pukare tujhe
    mann ja re, mana le mujhe
    sunn pyare, lagale galle
    kho ja re, tu gaa le sang re

    tere bina, zindagi lage saza
    tera saath ho, yeh saza lage juza
    tau barhte jaen raste sare, dunya peeche hum hain aage
    ke dil haare, pukare tujhe
    man ja re, mana le mujhe
    sunn pyare, lagale galle
    kho ja re, tu gaa le sang re

    ke dil haare, pukaare
    mann ja re, mana le
    ke dil haare, pukaare
    mann ja re, mana le

    Song Written by Goher Mumtaz
     
  5. BIG_EVIL

    BIG_EVIL Guitaring Machine

    niceeeeeeeeeeeeeeeeeeeeeee
     
  6. raj_aryan

    raj_aryan Moderator

    Dil Haray Tabs

    :beer: :rock: :rockon:



    e|-------------------------------------------------------|
    b|-------------------------------------------------------|
    g|-7-7-5-4---4-7-7-5-4-5p4-4-4-4-5p4-4-4-4-5-4-5-4-4----4|
    d|---------7-----------------------------------------7-7-|
    a|-------------------------------------------------------|
    e|-------------------------------------------------------|


    e|-------------------------------------------5/7-8-7-5-7-|
    b|---------------------------------------8-7-------------|
    g|---------4-----4-----7-5-4------4----------------------|
    d|-7-5-5h7---7-7---7-5-------7-7-----7-5-----------------|
    a|-------------------------------------------------------|
    e|-------------------------------------------------------|


    e|-8-8/7-7-7-7\5-5-5-5\3-3-3-10-10-10\8-8-8\7-7-7\5-5-5--|
    b|-------------------------------------------------------|
    g|-------------------------------------------------------|
    d|-------------------------------------------------------|
    a|-------------------------------------------------------|
    e|-------------------------------------------------------|


    e|-8-7-5-------------------------------------5-7-8-7-----|
    b|-------7-5h7-5-5\3-3\1-3---------------5-7---------8-7-|
    g|---------------------------5-4-5p4-5-4-----------------|
    d|-------------------------------------------------------|
    a|-------------------------------------------------------|
    e|-------------------------------------------------------|


    e|----------------------------------------------12-10-8-7|
    b|-5-----------------------------------------------------|
    g|----5-4-4h5p4-------------------------5-----7----------|
    d|--------------5-7-5--------------5--7---7-5------------|
    a|--------------------7-5--7-5-5h7-----------------------|
    e|-------------------------------------------------------|


    e|-5-3---------------------------------------------------|
    b|-------------------------------------------------------|
    g|-------------------------------------------------------|
    d|-------------------------------------------------------|
    a|-------------------------------------------------------|
    e|-------------------------------------------------------|

    ONE OF MY FRIEND HELPED ME TO TAB THIS :cen: :shutup:
     
  7. BIG_EVIL

    BIG_EVIL Guitaring Machine

    solo is a bit difficult
     
  8. rizaaj

    rizaaj Forum Leader

    well, not so much, but takes some time though to get hold of it
     
  9. har1s

    har1s <b>Untitled</b>

    solo is not tht difficult @ biggiee btw, wrong forum...shud be in pakistani guitar tabs....n btw...itz already posted there like a million times!!
     
  10. faiqrock

    faiqrock XaiQ

    hey damise...here are the 101% chords....My own not copied man;):)
    e-------3-2-------5-2------------
    B-----3-----3----------------
    G---0----------0--------------
    D----------------------------
    A----------------------------
    E-3--------------------------

    e-------3-2---------7-------------
    B-----3-----3------7----------
    G---0----------0-------------
    D----------------------------
    A----------------------------
    E-3--------------------------

    (3 times)
    e-------3-2-------5-2------------
    B-----3-----3----------------
    G---0----------0--------------
    D----------------------------
    A----------------------------
    E-3--------------------------

    e-------3-2---------7-------------
    B-----3-----3------7----------
    G---0----------0-------------
    D----------------------------
    A----------------------------
    E-3--------------------------

    (2 times)
    e-------3-2-------5-2------------
    B-----3-----3----------------
    G---0----------0--------------
    D----------------------------
    A----------------------------
    E-3--------------------------


    e-------7-5---7h8-----------
    B-----7-----7-----------------
    G---------------------------
    D----------------------------
    A----------------------------
    E-7--------------------------

    e-------7-5---7-5-----------
    B-----7----------------------
    G---------------------------
    D----------------------------
    A----------------------------
    E-7--------------------------

    e|-----0---2---3-2-------
    b|---3---3---3-----3---3-
    g|-------------------------
    d|-------------------------
    a|-3---------------------
    e|-------------------------

    e|-------3--2-------3----------
    b|----3-------------3-----------
    g|------------------0--------------
    d|------------------0-------------
    a|-3--------------------------------
    e|--------------------------------

    Pattern 1 :- Strum 2 Times.....
    G chord
    e -3
    B -3
    G -0
    D -0
    A -2
    E -3

    Pattern 2 :-Strum2 times
    Cadd9 Chord
    e -3
    B -3
    G -0
    D -2
    A -3
    E -0


    Pattern 3 :-Strum2 times
    EM7 Chord
    e -3
    B -3
    G -2
    D -2
    A -0

    Pattern 4 :-Strum2 times
    D chord

    e -2
    B -3
    G -2
    D -0
    A -x
    -------------------------------------------------------------------------------------
    G Cadd9
    Ankhoon say jub bhi ho teri aankhein juda

    G Cadd9
    mun say jub bhi ho tera man khafa

    G Cadd9
    tau ji pukare, pukare tujhe

    G Cadd9
    man ghabraye a a a bulaye tujhe



    G Cadd9 Em7
    k dil harey pukare tujheeey

    D G Cadd9 Em7
    mun ja re manale mujhey

    D G Cadd9 Em7
    sunta re lagale galay

    D G Cadd9 Em7 D
    koh ja re tu gaa lay sung re


    G Cadd9
    tere bina zindagi laa gey ak saza
    G Cadd9
    tera saath ho yeh saza laa gay ak jaza
    G Cadd9
    tau barte jaye tau rastey saare
    G Cadd9
    duniya peechay tau hum hai aa gay

    G Cadd9 Em7
    k dil harey pukare tujheeey

    D G Cadd9 Em7
    mun ja re manale mujhey

    D G Cadd9 Em7
    sunta re lagale galay

    D G Cadd9 Em7 D
    koh ja re tu gaa lay sung re

    HOoooOO hoo OO hoo ho.......................
    "SOLO"

    e|-------------------------------------------------------
    b|-------------------------------------------------------
    g|-7-7-5-4---4-7-7-5-4-5p4-4-4-4-5p4-4-4-4-5-4-5-4-4-
    d|---------7------------------------------------------
    a|-------------------------------------------------------
    e|-------------------------------------------------------


    e|-------------------------------------------------
    b|---------------------------------------------------
    g|--------------------------------------------7-5-4---
    d|--7--9--7--5---------5h7--9--7-7-9--7-5-----7-9--7-5-
    a|-------------------------------------------------------
    e|-------------------------------------------------------

    e|--------5--7-8-7-5--7--8-----------------------------
    b|--8--7-------------------------------------------
    g|-----------------------------------------------
    d|----------------------------------------------
    a|-----------------------------------------------
    e|----------------------------------------------

    e|-8-8/7-7-7-7\5-5-5-5\3-3-3-10-10-10\8-8-8\7-7-7\5-7-8--|
    b|-------------------------------------------------------
    g|-------------------------------------------------------
    d|-------------------------------------------------------
    a|-------------------------------------------------------
    e|-------------------------------------------------------

    e|-8-7-5-------------------------------------5-7-8-7-----
    b|-------7-5h7-5-5\3-3\1-3---------------5-7---------8-7-
    g|---------------------------5-4-5p4-5-4-----------------
    d|-------------------------------------------------------
    a|---------------------------------------------------
    e|-----------------------------------------------------


    e|----------------------------------------------12-10-8-7-5-3|
    b|-5-----------------------------------------------------
    g|----5-4-4h5p4-------------------------5-----7----------
    d|--------------5-7-5--------------5--7---7-5-----------
    a|--------------------7-5--7-5-5h7-----------------------
    e|-------------------------------------------------------
     
  11. har1s

    har1s <b>Untitled</b>

    not totally urz @faiqrock ....some copied from "zohaib's" post!!
     
  12. faiqrock

    faiqrock XaiQ

    wht ever/....but this is my tabs n chords...alrite..whtever u say wht can i doo
     
  13. sixstringwonder

    sixstringwonder New Member

    Faiq, I am not sure if Em7 does the trick for me. More than that, I just think using Dmaj puts the song in a different scale altogether ... and it sounds a little off. I think Barre is the way to go on this song. But A for effort mate. Reps to you.
     

Share This Page