req tabs:- movie TUM BIN

Discussion in 'Hindi Guitar Tabs - Submit or Request' started by flyingbird, Oct 10, 2005.

  1. flyingbird

    flyingbird New Member

    Hi Friends,

    Its Me Again With Request
    Does Any1 Have Tabs Of Any Song Of Movie Tum Bin
    Espacially Title Song
    Eagerly Waiting 4 Reply
    Bye
     
  2. shaniiiii

    shaniiiii New Member

    Boss I M A New User I Don Know How Tu Search Tabs Here If U Plzz Help Me In Doing So Plzz Tell Me How Can I Search Hindi Songs Tabs Here I Want Kel Ho Na Ho Dil Chata Hy N Some Other Hndi Movies Tabs Plzz Do Tell Me How Can I Get All These Ill Be Thankfull 2 U Tc Bye...reply Soon U Can E Mail Or Or Contact Me On (shan_isgr8@hotmail.com)
     
  3. shaniiiii

    shaniiiii New Member

    Hindi Songs Tabs

    Boss I M A New User I Don Know How Tu Search Tabs Here If U Plzz Help Me In Doing So Plzz Tell Me How Can I Search Hindi Songs Tabs Here I Want Kel Ho Na Ho Dil Chata Hy N Some Other Hndi Movies Tabs Plzz Do Tell Me How Can I Get All These Ill Be Thankfull 2 U Tc Bye...reply Soon U Can E Mail Or Or Contact Me On (shan_isgr8@hotmail.com)
     
  4. abhimanjrekar

    abhimanjrekar ----> Zhol-Man<----

    tum bin jiya jaye kaise
    --9 9----------------------------------------------
    ----...........10 10 ...............7...............................
    -------------------------9 9 9------------------------------
    -------------------------------------------------------
    -------------------------------------------------------
    -------------------------------------------------------

    kaise jiya jaaye tum bin
    ----7-----7 7--------7 7---------------------------------
    --8---............8...............8............................
    -------------------------------------------------------
    -------------------------------------------------------
    -------------------------------------------------------
    -------------------------------------------------------

    sadiyo se lambi hain raatein

    --9 9----------------------------------------------
    ----...........10 10 ...............7...............................
    ----------------------9 9 9------------------------------
    -------------------------------------------------------
    -------------------------------------------------------
    -------------------------------------------------------
    sadiyon se lambe hua din
    ----7-----7 7--------7 7---------------------------------
    --8---............8...............8............................
    -------------------------------------------------------
    -------------------------------------------------------
    -------------------------------------------------------
    -------------------------------------------------------

    ajau lautkar tum ye dil keh raha hain

    ---------------------------------7----........................10 9 7
    --10 10 ....10 8 7 8..........8....................................... 10
    -------------------------------------------------------
    -------------------------------------------------------
    -------------------------------------------------------
    -------------------------------------------------------


    para ::

    pir shaam tanhain jaagi

    ------------------7 8 8 8---------------
    -10 10 -.....10 ......... ..........................
    -------------------------------------------------------
    -------------------------------------------------------
    -------------------------------------------------------
    -------------------------------------------------------

    pia yaad tum aa rahe ho

    ........................7 ...........................
    .10 10 ...10 10 ...10 9 9..........................................

    same pattern for next 2 lines.

    is dil se tufan gujarte hain

    .................................................
    .9 9...9..7.9......9..10 10...............................

    tum bin na jeete na marte hain

    .................................................
    .9 9...9..7.9......9..10 10...............................

    then repaet as same for AA jaaon laut kar tum and the song goes on....

    this is my first attempt at tabs..i dont use this case ... if u face ne probs ask me,ill help u out..i have posted recordin also..thisis one of my fav songs..enjoy playing....

    http://rapidshare.de/files/6104129/tum_bin_lead.mp3.html
     
  5. abhimanjrekar

    abhimanjrekar ----> Zhol-Man<----

    CORRECTED TABS:::::::

    tum bin jiya jaye kaise
    --9 9----------------------------------------------
    ----...........10 10 ...............7...............................
    -------------------------9 9 9------------------------------
    -------------------------------------------------------
    -------------------------------------------------------
    -------------------------------------------------------

    kaise jiya jaaye tum bin
    ----7-----7 7--------7 7---8------------------------------
    --8---............8.................................... .......
    -------------------------------------------------------
    -------------------------------------------------------
    -------------------------------------------------------
    -------------------------------------------------------

    sadiyo se lambi hain raatein

    --9 9----------------------------------------------
    ----...........10 10 ...............7...............................
    ----------------------9 9 9------------------------------
    -------------------------------------------------------
    -------------------------------------------------------
    -------------------------------------------------------
    sadiyon se lambe hua din
    ----7-----7 7--------7 7---8------------------------------
    --8---............8.................................... .......
    -------------------------------------------------------
    -------------------------------------------------------
    -------------------------------------------------------
    -------------------------------------------------------

    ajau lautkar tum ye dil keh raha hain

    ---------------------------------7----........................10 9 7
    --10 10 ....10 8 7 8..........8...................................... . 10
    -------------------------------------------------------
    -------------------------------------------------------
    -------------------------------------------------------
    -------------------------------------------------------


    para ::

    pir shaam tanhain jaagi

    ------------------7 8 8 8---------------
    -10 10 -.....10 ......... ..........................
    -------------------------------------------------------
    -------------------------------------------------------
    -------------------------------------------------------
    -------------------------------------------------------

    pia yaad tum aa rahe ho

    ........................7 ...........................
    .10 10 ...10 10 ...10 9 9..........................................

    same pattern for next 2 lines.


    pia yaad tum aa rahe ho ( SLOW)

    .................................................
    .9 9...9..7.9......9..10 10...............................

    then same..is din se tufan like TUM BIN JIYA JAAYE and song goes on..sorry for above..it s my first tabbin act...
     
  6. flyingbird

    flyingbird New Member

    search tab

    hey shaniiiiiiiiiii
    u can see the post posted by igt members 4 tabs
    u can also get many hindi song tabs/chords on site-
    www.hindisongnotes.com
     

Share This Page