req: tabs for songs by jal band

Discussion in 'Pakistani Guitar Tabs - Submit or Request' started by monika9, Dec 10, 2008.

  1. monika9

    monika9 New Member

    hi frens
    m a crazy fan of jal band and wud love to play tabs of their songs . but m not dat gud with guitar so cant figure out d notes myself. plz p0lz plz provide me d notes for leads of their songs( specially teri yaad, sajni, lamhey, aadat , ek dn ayega or ne other
    thanx
     
  2. neal_killer

    neal_killer New Member

    hi check this out

    INTRO
    --------------------------------------------------------------
    --------------------------------------------------------------
    -5--7-7-7-7--5-7---------------------------------------------
    --------------------7---------7-5--7-7-7-7--5-7--7-----------
    ------------------------8-6-5-----------------------5-6-6-6-5-
    ----------------------5----------------------------------------


    Main teri ankhon me rehta hoo , tujhe pata na chale

    ----------------------------- , ----------------------
    ----------------------------- , ----------------------
    -7------7-------------------- , ----------------------
    ---4-5-------7-7---7-5------ , -7-7---5-5------7--5----
    -----------5-----6---------- , -------------5---------
    ---------------------------- , ----------------------


    Tere harr pal me guzra hoo , tujhe pata na chale

    --------------------------------- , ---------------------
    --------------------------------- , ----------------------
    -7-7-----------------5----------- ,----------------------
    -----4-5---------------7---7-5-7- , -7-7---5-5------7--5----
    ---------8(h)-6(s)-5-----6------- , -------------5---------
    --------------------------------- , ----------------------

    Kare to phir kyaa kare , Tere bin kaise jiyeeeeeeee

    ----------------------------- , -----------------------------
    -7--------------------------- , -----------------------------
    ----------------------------- , -5---------------------------
    ---5-5-5----7-4-2(s)-4(s)-2- , --7-7--4-------------------5-
    ----------5------------------ , -----------5(h)-6-5-5--3-5-3--
    ----------------------------- , ------------------------------

    ankhon me pyaar liyeee , Bolo kaha kaha fireeeee

    ----------------------------- , -----------------------------
    -7--------------------------- , -----------------------------
    ----------------------------- , -5---------------------------
    ---5-5-5----7-4-2(s)-4(s)-2- , --7-7--4-------------------5-
    ----------5------------------ , -----------5(h)-6-5-5--3-5-3--
    ----------------------------- , ------------------------------


    Khafa to hum bhi hai tum bhi , hame pata na chale

    --------------------------- , -----------------------
    --------------------------- , -----------------------
    -7-7------7----------------- , -----------------------
    -----4-5--------7---7-5-5-7-- , -7-7--5-5---7-5-------
    -------------5--------------- , -----------5-----------
    --------------------------- ,-------------------------

    judai ka mujhe gham bhi hai , koi aisi khata na kare

    --------------------------- , -----------------------
    --------------------------- , -----------------------
    -7-7------7----------------- , -----------------------
    -----4-5--------7---7-5-5-7-- , -7-7-7--5-5-----7-4------
    -------------5--------------- , --------------5----------
    --------------------------- , -----------------------

    Kare to phir kyaa kare , Tere bin kaise jiyeeeeeeee

    ----------------------------- , -----------------------------
    -7--------------------------- , -----------------------------
    ----------------------------- , -5---------------------------
    ---5-5-5----7-4-2(s)-4(s)-2- , --7-7--4-------------------5-
    ----------5------------------ , -----------5(h)-6-5-5--3-5-3--
    ----------------------------- , ------------------------------

    ankhon me pyaar liyeee , Bolo kaha kaha fireeeee

    ----------------------------- , -----------------------------
    -7--------------------------- , -----------------------------
    ----------------------------- , -5---------------------------
    ---5-5-5----7-4-2(s)-4(s)-2- , --7-7--4-------------------5-
    ----------5------------------ , -----------5(h)-6-5-5--3-5-3--
    ----------------------------- , ------------------------------

    Sajni pass bulao naa , ke dil aaj toota hai

    ------------------------ , ------------------------
    ------------------------ , ------------------------
    -7-7-7---7------7------- , -7-7-7-7------5-7-----------
    ------------4-5--------7- , ---------5--------------
    --------------------2---- , -------------------------
    ----------------------- , -------------------------

    Sajan maan jao naa , ke moh ajj rootha hai

    ------------------------ , ----------------------
    ------------------------ , ----------------------
    -7---------------------- , ----------------------
    --4-------7-------7----- , -7-7---5---5--7------
    -----5-5----6-5--------- , ----------5------------
    ------------------------ , -----------------------

    koi use manaaayee na , Janeejaaaaaaa

    ------------------------ , -------------------------
    ------------------------ , -------------------------
    -7-9-7-9-7-5-4-5------- , -7-----------------------
    ------------------------ , --------7-7----------------
    ------------------------ , ----5--------------------
    ------------------------ , -------------------------

    Dil tujhe hi chahe na , ho ho ho ho ho ho ho hoooooo

    ----------------------- , -------------------------------
    ----------------------- , -------------------------------
    ----------------------- , -7-----------------------------
    -7-5-5----7--4-4------ , -----4-4----5-5----7-7---8---

    --------5-------------- , --------------------------
    ----------------------- , --------------------
     
  3. neal_killer

    neal_killer New Member

    hi check out teri yaad by jal band

    teri yaad

    B -------------12------
    E ----12--10-----------

    aaye jab mujhko

    B ---------------8-7--
    E ----7-7-5-8-7-------

    main laut aaunga

    B---------------------
    E --0-0-3-8-7-5------

    wo tere saath
    B -------------12-12---
    E ----12--10-----------

    Guzaare lamhe

    B ---------------8-7--
    E ----7-7-5-8-7-------

    na bhool paaunga

    B---------------------
    E --0-0-2-3-8-7-5------
     
  4. Quadrophenia

    Quadrophenia New Member


    Heya, you should be able to find plenty of Jal tabs, make a quick search. I am pretty confident you should be able to find Aadat,Lamhay and Teri Yaad.

    Sajni is simple. I will post the complete song with leads.. So watch this space!

    And finally, dont be disheartened if you cant hear the correct notes. Its a skill, like any other it needs to be develeoped.Start tabbing easy stuff and increase difficulty as you go along.:rock:
     

Share This Page