Req: Tabs for Mouna Raagam Theme Music...

Discussion in 'Tamil Guitar Tabs - Submit or Request' started by vs.suresh, Apr 3, 2013.

  1. vs.suresh

    vs.suresh New Member

    Dear All,

    Can anyone try out and post the tabs for Mouna Raagam Theme Music...

    https://www.youtube.com/watch?v=smSmdel914Q

    Sathya / Senthil / Rajesh(s) / jimihndrx - Can you please try it out....

    Thanks in advance...
     
  2. rajeshguitar

    rajeshguitar New Member

    Hi Suresh,
    Vinod tried this earlier, don't know how accurate this is. I tried it out, it was pretty good.
    Please find the tabbing here - Songs Book :: Chords for latest Songs
    Rajesh
     
  3. vs.suresh

    vs.suresh New Member

    Thanks Rajesh... Will try it out...
     
  4. vs.suresh

    vs.suresh New Member

    Rajesh,

    The tab notes are not starting from the beginning... The given note starts @ 0.27 from the video... The first half is missing...

    Can anyone please try it out..
     
  5. Suresh... try searching I think the tabs are already on IGT or IKF... The problem with the awesome tune is that it is too fast!
    The speed is the major problem .... I really love the part after 0:28 secs i the video

    Thanks for the link rajesh, but the notes are just half right :(
    I mean, it takesoff beautifully, but after the first repeat, in the secondline, it falls short ;( (I hope I am not the only guy who feels that as i can't play properly lol)
    Let's see if someone else can crack this here ...

    Regards,
    Abhay
     
  6. vs.suresh

    vs.suresh New Member

    Abhay,

    The tabs available on IGT is for the second half... from 0.01 to 0.27 is missing...
     
  7. Hi suresh,

    Here are the tabs for 0:06 to 0:27

    E>-4-3--------------------------------4-3----------------------------------------------------
    B>------3-4-------4-3-3-----------------3-4----6-4-3-3----------------------------------
    G>-----------5----------------------------------5---------------------------------------------
    D>--------------5------------------------------------------------------------------------------


    E>-------4-3-3---------------11-10-10------8--------11s10----------------------------
    B>----4-----------6----5-6------------------------11----------------------------------------
    G>-5-------------------------------------------------------------------------------------------
    D>----------------------------------------------------------------------------------------------

    Then from 0:28, you play
    E>-11---------10----11---------
    B>----8-9-8------8------8------ so on and so forth...

    Enjoy the magic of Raja Sir,
    Regards,
    Abhay
     
  8. vs.suresh

    vs.suresh New Member

    WoW... Thanks Abhay...

    Will try it out and let u know...

    Thanks for posting the tabs.

    Keep posting...
     
  9. pearlmaharajan

    pearlmaharajan New Member

    that came good... but not sure of middle part in the second line...

    can you pls summarize everything?
     
  10. It's my pleasure playing a Raja Sir tune.
    Thanks,
    Abhay
     
  11. Thanks for the pointer Pearl Sir....
    Actually mis-typed it.... will edit that.
    Going on a two day trekking camp in five hours from now...
    will try to summarize on sunday evening.... or if possible from my tent saturday night...
    Gotta get some sleep to be able to wake up in time for my trip.
    Good night Sir,
    Regards,
    Abhay
     
  12. jimihndrx

    jimihndrx Guitar Hero

  13. pearlmaharajan

    pearlmaharajan New Member

    may b but both differ a lot. and u c in layman terms raja version goes sharper and painful
     
  14. pearlmaharajan

    pearlmaharajan New Member

    no sir and all bro. Just say pearl or Maha. I'm 28 only and no deep knowledge in anything :)
     
  15. vs.suresh

    vs.suresh New Member

    Hi Abhay,

    I hve tried and its very nice...

    Can you please confirm the last note...
    E>-------4-3-3---------------11-10-10------8--------11s10----------------------------
    B>----4-----------6----5-6------------------------11----------------------------------------

    is it E> 11s10 or B> 12
     
  16. vs.suresh

    vs.suresh New Member

    Hi Abhay,

    Did you get a chance to check?

     
  17. Hi suresh,
    Sorry I didnt have m laptop for few days.... yes, i did check for the note you suggested.
    Actually B12 ("b" note) looks better when i play it at a speed... though the slight twang caused by Sada Sir's playing in the video is missing...
    But we could also try sliding from b to a#, which i think is more appropriate and will edit the original tab...

    Replying from office workstation..... hopefully will get back soon from my laptop.

    Regards,
    Abhay
     
  18. Here is the modified version, after improved changes,
    thanks to pearlmahajan and vs.suresh for their inputs..

    Tabs for the intro part of the theme, 0:06 to 0:27 of the video mentioned in the request post.


    E>-4-3--------------------------------4-3----------------------------------------------------
    B>------3-4-------4-3-3-----------------3-4----6-4-3-3----------------------------------
    G>-----------5----------------------------------5---------------------------------------------
    D>--------------5------------------------------------------------------------------------------


    E>-------4-3-3---------------11-10-10------8------------------------------------
    B>----4-----------6----5-6------------------------11---12s11-------------------------------------
    G>-5-------------------------------------------------------------------------------------------
    D>----------------------------------------------------------------------------------------------

    Can't summarize the whole theme as I don't have my laptop for the next few days..
    Will be very happy if someone takes it up.

    Regards,
    Abhay
     
  19. vs.suresh

    vs.suresh New Member

    Thanks Abhay for your validation... Now its look perfect...
     
  20. Thanks bro... happy i could help :)
     

Share This Page