Req: TABs for Kumar Sano's latest solo album "Pehla Ye Pehla, Pyar Tera Mera"

Discussion in 'Hindi Guitar Tabs - Submit or Request' started by NisarS, Oct 23, 2004.

  1. NisarS

    NisarS New Member

    Req: {TABs / Lyrics / Chords} for Kumar Sano's latest solo album "Pehla Ye Pehla, Pyar Tera Mera".
     
  2. urmilus

    urmilus New Member

    yes man dats da cool song..i need it too..pls help us guitar experts..
     
  3. urmilus

    urmilus New Member

    lyrics

    thats music4eva's work i m just putin it here..

    Tera Mera Pyar:

    Ooohhh...
    Pehla yeh pehla/Pyar tera mera sony
    Pehli yeh mulaqat haiiii....*2
    JO keh rahi hai aankhein
    Woh keh rahi hai baatein
    Jaagi tu bhi saari raat haiiiii.....*2

    Pehlaaaaaaa.......hai pehlaaaa... Tera mera pyar

    Ooohhh... * 2

    Dil Pe chalaaa naa/ jab zor koiiiiiiii....
    Dil Pe chalaaa naa/ jab zor koi
    Tu mere Pas aa gayiiii
    hai, Main tere pas aa gayaaa...

    Pyaasi hai teri saansein...
    Pyaasi hai meri saansein...
    Uspe yeh barsat haiiiiii.... * 2

    Pehlaaaaaaa.......hai pehlaaaa... Tera mera pyar

    Hey.... ha ha ha...
    mmmm ahaa haa..

    Kab se te hum tum/ Tanha akeleeeeee...
    Kab se te hum tum/ Tanha akele
    Aaj Tujhe/ chain mil gayaa....
    Aaj mujhe chain mil gayaa....

    Baahon mein meri tum
    Baahon mein teri hum
    Aur yeh/ Jawaan raat haiiiiiii...
    Aur yeh/ Jawaan raat hai

    Pehlaaaaaaa.......hai pehlaaaa... Tera mera pyar

    (Guitar)

    Ruk si gayi hai... teri meri raaheeeeein
    Ruk si gayi hai/ teri meri raahein
    hum jo /saath aa gayeee
    hai, manzil ke pas aa gaye.

    Aaye the kahaan se donon?
    jaayenge kahaanpe donon?
    Yeh to ab/ kise yaad haiiiiii... *2

    Pehlaaaaaaa.......hai pehlaaaa... Tera mera pyar

    Pehla yeh pehla/ Pyar tera mera sony
    Pehli yeh/ mulaqat haiiii..... * 2
    JO keh rahi hai aankhein
    Woh keh rahi hai baatein
    Jaagi tu bhi/ saari raat hai.....*2

    Pehlaaaaaaa.......hai pehlaaaa... Tera mera pyar
    hai pehlaaaa... Tera mera pyar
    hai pehlaaaa... Tera mera pyaaaar

    Ooohhh...
    Ooohhh...
    =================================

    if anyone can tell me where can i get this song i will tab that. i hardly c tv these days n its been a time listenin to dat song. though i will still try.
     
  4. NisarS

    NisarS New Member

    Still looking for it.... any help

    Still looking for it.... any help
     
  5. NisarS

    NisarS New Member

    Re

    Any luck ???????
     
  6. rudra_joshi

    rudra_joshi New Member

    Where Are The Tabs???
     
  7. piccolomair

    piccolomair New Member

    seriously someone pleeze tab this song...i dont like bollywood, and dislike indian songs for teh most part, but jeez the guitar in this is....so awesome...someone tab....
     
  8. seriousvivek

    seriousvivek New Member

    try this out
    |--------------------------------------------------|
    |-------5-4-5-4------4-----------------------------|
    |-----6--------------------------------------------|
    |---6-----------4-4--4-----------------------------|
    |-4------------------------------------------------|
    |--------------------------------------------------|


    |--------------------------------------------------|
    |--------------------------------------------------|
    |--------8---------8-------------------------------|
    |-6--9-8---8-------8-------------------------------|
    |---------------6----------------------------------|
    |-------------6------------------------------------|

    |--------------6-7-6-------------------------------|
    |-------5-4-5--------4-----------------------------|
    |-----6--------------------------------------------|
    |---6----------------------------------------------|
    |-4------------------------------------------------|
    |--------------------------------------------------|


    |------------6-7-6---------------------------------|
    |------------------4-------------------------------|
    |--------8-----------------------------------------|
    |-6--9-8---8---------------------------------------|
    |--------------------------------------------------|
    |--------------------------------------------------|
     
  9. g_kepnrock

    g_kepnrock New Member

    it's a nice song by Sanu...

    But whr d cords ...
     
  10. rashu999

    rashu999 New Member

    i cnt understand these tabs...cn anybdy help me??hw to play these??
     
  11. suhzar

    suhzar New Member

    i have tabbed this song in a different key which works quite well because it uses a lot of open strings. it's in my recent tera mera pyar thread
     
  12. axe_krap

    axe_krap New Member

    vivek!!!!gud wrk man!!!!!it sounds jus perfecto!!!!!
     
  13. myfavguitar

    myfavguitar New Member

    Hi,
    New member, i was keen to find the tabs for kumar sanu, but the one posted here are very difficult to play as they are played on all strings of vaious frets across the fret board. If there is any genius musician who can re-discover this song with 2 strings it would be much easier i guess. Anyways best of luck for inventing the tabs.
     
  14. neal_killer

    neal_killer New Member

    here the chords for pehla ye pehla by kumar sanu

    Pehla ye pehla
    (G#m)

    pyaar tera mera soni
    (F#)

    Pehli ye mulakat hai
    (G#m)

    Jo keh rahi hai ankhen
    (G#m)

    wo keh rahi hai baatein
    (F#)

    Jaagi tu bhi saari raat hai
    (G#m)

    Pehla aaaaaa aaa
    (G#m)

    hayeee pehla
    (F#)

    tera mera pyaar
    (G#m)
     
  15. kishore kalara

    kishore kalara New Member

    hi

    hi dude how r u,this is kishore do u have a lead for kaho na pyaar hai
     

Share This Page