Req: Tabs Ennule ennule song from valli

Discussion in 'Tamil Guitar Tabs - Submit or Request' started by bujibhuvana, Jan 18, 2014.

  1. bujibhuvana

    bujibhuvana New Member

    e------------------------------------------------------------------------
    B----------6----------6------------------6-----------6-------------------
    G-5-7-8--7---8--8-7-8---8-7-8---5-7-8--7---8---8-7-8---8-7-8-------------
    D------------------------------------------------------------------------
    A------------------------------------------------------------------------
    E------------------------------------------------------------------------

    e------------------------------------------------------------------------
    B-8-8----8-9-6----8-8-----8-9-6---88----88-------------------------------
    G-----88--------------88-------------------------------------------------
    D------------------------------------------------------------------------
    A------------------------------------------------------------------------
    E------------------------------------------------------------------------

    Please contribute the tabs for full song plz.....


    Here is the instrumental version of this song:
    http://isaitamil.in/download/files/...nnulle_Ennulle_Instrumental(isaitamil.in).mp3
     
  2. SATHYA167

    SATHYA167 New Member

    It is there in the forum. I had already put this one............. Sathya
     
  3. bujibhuvana

    bujibhuvana New Member

    yes na.. got ur modified version :)
     

Share This Page