REQ: solo of Khamaj by fuzon

Discussion in 'Pakistani Guitar Tabs - Submit or Request' started by zain, Sep 7, 2004.

  1. zain

    zain New Member

    hey peepz . . .yaar i listened to khamaj .. shallum was excellent in guitraings .. . plz post da solo of khamaj herreeeeeee
     
  2. shredhead

    shredhead New Member

    lol ... :p ... it is 1 of the MOST DIFFICULT SOLOz to play although it lookz so simple when shallum is playing it ... a very gud guitarist friend of mine has made the song 100% exact ... but there r no tabz to it as yet ... but i know ... he is a very gud guitarist and even he often messes up in the solo ... so u can give something else a try fer the moment ;)
     
  3. zain

    zain New Member

    yaaaar .. . .but i'll try to play na .. agar koi tabs day day to
     
  4. Complicated

    Complicated New Member

    khamaj

    I WILL paste the solo of this song but only on one condition.....say please..... :p
     
  5. zain

    zain New Member

    please please please . .. .complicated plz post them . .. happy now??
     
  6. invincible2k

    invincible2k New Member

    Author/Artist: Fuzon
    Title: Khamaj
    Transcribed by: Shani
    Email: shani21m@hotmail.com
    Date: 05-February-2004
    URL: www.pakmanzil.com
    Comments : This tabs is totally my work all suggestions, corrections
    welcome at shani21m@hotmail.com

    Standard tuning

    ~~ Long Vibrato ~ Short vibrato
    h Hammer on p Pull off
    s Slide ( ) Legato -Play only first note
    b Bend r Release

    Chords : F#(244322), Bbm(113321), Bsus(224422)

    Intro

    Riff 1:

    e-----------11-----------------------------------------------------
    B-11-12-9~----------9-11-9----------(12p11p9)----------------------
    G---------------11---------11-8~~-------------11-10~~h11--8~~-10~~-
    D------------------------------------------------------------------
    A------------------------------------------------------------------
    E------------------------------------------------------------------

    e-------------------------------------------------------------------
    B-------------------------------------------------------------------
    G------11-8----------------------(9s11~~)---------------------------
    D-8-9-------11-9-8-------8-(8h9)------------------------------------
    A------------------11-9---------------------------------------------
    E-------------------------------------------------------------------

    e-----------11-------------------------------------------------------
    B-11-12-9~----------9-11-9----------(11h12p11p9)---------------------
    G---------------11---------11-8~~---------------11-10~~h11--8~~-10~~-
    D--------------------------------------------------------------------
    A--------------------------------------------------------------------
    E--------------------------------------------------------------------

    e-------------------------------------------------------------------
    B-------------------------------------------------------------------
    G------11-8----------------------(9s11~~)---------------------------
    D-8-9-------11-9-8-------8-(8h9)------------------------------------
    A------------------11-9---------------------------------------------
    E-------------------------------------------------------------------

    then Play following Pattern in sequence

    Note: These Pattern are very easy to Play just Grip Bsus Chord in Pattern 1
    and use ur Middle finger to Play Lower E the TOP one 4th Fret Note,
    In Pattern 2 Just Shift ur Middle finger to 3rd Fret of G String
    and use ur Ring finger to Play Top E 4th Fret Note.
    Pattern 1 and Pattern 3 are same :)



    P1: P2:

    e------2----------2----- e------2-----------2-----
    B----2--------------2--- B----2-----------2---2---
    G-------------4--------- G-3----------------------
    D-4--------------------- D------------------------
    A----------------------- A------------------------
    E--------4-------------- E--------4---------------

    P3: P4:

    e------2----------2----- e----1-1s4-2~--2-2s4-2~~-
    B----2--------------2--- B------------------------
    G-------------4--------- G-3----------------------
    D-4--------------------- D------------------------
    A----------------------- A------------------------
    E--------4-------------- E------------------------


    P1 P2 P1 P2
    sawan beto ja re k harwaa, sawan beto ja re k harwaa

    P1 P2 P1 P2
    mun mera ghabraaaayee, mun mera ghabraaaayee

    P1 P2 P1 P2
    aaisay gayo pardes pia tum, aaisay gayo pardes pia tum

    P1 P2 P1 P2
    chain hamein nahi aaaaaaaaaaaye, chain hamein nahi aaaaaaaaaaaye


    Chorus:

    Bsus F# Bsus F#
    Mora saiyaa mosay bole naa, Mora saiyaa mosay bole naa

    Bbm F# Bbm F#
    mein lakh jatan kur haari, laakh jatan kur haaaaaaaarri

    Bsus F# Bsus F#
    Mora saiyaa mosay bole naa, Mora saiyaa mosay bole naa


    Play Intro Riff 1

    P1 P2 P1 P2
    tu jo nahi tau aisay pia hum, tu jo nahi tau aisay pia hum

    P1 P2 P1 P2
    jaisay suunaa aanngana, jaisay suunaa aanngana

    P1 P2 P1 P2
    nain teha ri raaha ne haaare, nain teha ri raaha ne haaare

    P1 P2 P1 P2
    nainen ko tarsaaa oo naa, nainen ko tarsaaa oo naa

    Repeat Chorus

    Solo:

    e------------------------------------------------(7s13)-13-11-9-9------9-
    B-------------------------4-4-(4s6~)-(4s2s4~~)--------------------9-11---
    G-(6s8s10~~)-(8s6s8~~)--6------------------------------------------------
    D------------------------------------------------------------------------
    A------------------------------------------------------------------------
    E------------------------------------------------------------------------

    e------9------13-11-9------------------------------------------------------
    B-9-11---11-9---------11-9-11-(11s12)-11-9----------9-11-(11s12)-11-9------
    G------------------------------------------11~~-11--------------------11~~-
    D--------------------------------------------------------------------------
    A--------------------------------------------------------------------------
    E--------------------------------------------------------------------------

    e---------------------------9--------------------------14-11-13-11-9-16-11-19-18-
    B--------------------------------------------------------------------------------
    G-11s13-10-11-10-11-10--10----(10h11p10p8)---------8-----------------------------
    D------------------------------------------11~~----------------------------------
    A--------------------------------------------------------------------------------
    E--------------------------------------------------------------------------------

    e-14-11-13-11--9h10--9---------------------------------------------------------
    B----------------------12-11-9------------12----14-12-11-9-------9-------------
    G------------------------------11~~---11-----11------------11-10---11----------
    D------------------------------------------------------------------------------
    A------------------------------------------------------------------------------
    E------------------------------------------------------------------------------



    P1 P2 P1 P2
    pyar tumhe kitna kurte hain, pyar tumhe kitna kurte hain

    P1 P2 P1 P2
    tum yeh samaj nahi paao gaay, tum yeh samaj nahi paao gaay

    P1 P2 P1 P2
    jub humna hongay tau pe harwaa, jub humna hongay tau pe harwaa

    P1 P2 P1 P2
    bolo kia kub aaao gaayyy, bolo kia kub aaao gaayyy

    Repeat Chorus

    Play Intro Riff 1
     
  7. zain

    zain New Member

    thnx dude .. u rock
     

Share This Page