Req: Riff in b/w Jal Wo lamhe and string yeh hai meri kahani

Discussion in 'Hindi Guitar Tabs - Submit or Request' started by micraft, Mar 11, 2006.

  1. micraft

    micraft New Member

    Does anyone know how the riff in between the songs the original Jal Wo Lamhe and Strings Yeh hai meri kahani goes.

    The riff in Strings Yeh hai meri kahani, is there in the video, but in the mp3 version it's not there. The riff after John Abraham does some simple vocals.

    Hope u guys can help me out.

    Thanks.
     
  2. abhimanjrekar

    abhimanjrekar ----> Zhol-Man<----

    the intor ka is ther on site...and the next ka starts from 8th fret on 4th string...il try to tab if i get time..else just pm me kal...il see to it...
     
  3. micraft

    micraft New Member

    thansk abhimnjrekha, i would really like that.

    Anyone else who knows it?

    All help from anyone appreciated, thanks.
     
  4. abhimanjrekar

    abhimanjrekar ----> Zhol-Man<----

    e-----------------------------------
    b-----------------------------------
    g-8-6-6--8------------------------
    d-----------9---------------------

    e-----------------------------------
    b-----------------------------------
    g-8-6-6--8------------------------
    d-----------9---------------------

    e-----------------------------------
    b-----------------------------------
    g-8-6-6--8------------------------
    d-----------9---------------------


    b-9--11----9--7-------------------
    g-----------------------------------

    e-----------------------------------
    b-----------------------------------
    g-8-6-6--8------------------------
    d-----------9---------------------

    e-----------------------------------
    b-----------------------------------
    g-8-6-6--8------------------------
    d-----------9---------------------

    e-----------------------------------
    b-----------------------------------
    g-8-6-6--8------------------------
    d-----------9---------------------

    e----------9-------------------------
    b-9-11-12---11---9--12--9---7----

    e----------9---12--11--12--11-9-11-
    b-9-11-12------------------------------


    this is for wo lamhe....
     
  5. anth guitarist

    anth guitarist New Member

    this is for Ziinda hoon

    SOLO by ayad(http://www.indianguitartabs.com/showthread.php?p=203062#post203062)

    G-----------10-10-8-7-5-5-7-8-8s10-8-7-5-5h7-7-5h7-7-5-3-2
    D--5---7-8--------------------------------------------------------------

    G-----------10-10-12-13-13-12-12-12-12h13-15-15-15-------------------------------14-15-14--
    D--5---7-8-------------------------------------------------------13--13-13-12-12
     

Share This Page