REQ - Pink Panther

Discussion in 'English Guitar Tabs - Submit or Request' started by bob-bobby, Sep 17, 2004.

  1. bob-bobby

    bob-bobby Extinct or Banned!

    Hey guys , i am sure most of you guys must have seen Pink Panther Cartoon ,...

    can anyone try to tab the music ,.... :think:

    it was juss a thought and even i am trying to do it but the problem is somhow cannot recollect the rythm completely ,....

    :beer: :rockon:
     
  2. mubz

    mubz New Member

    Pink panther

    TABS : PiNk PanThEr :rule:
    by : mubz
    --------------------------------------------------------------------------------

    Thiis is my 1st post here .
    v : vibrate
    h : hammer


    [pink panther]

    e---0--3-4-5---7--8------------------
    a------------------------------------
    d------------------------------------

    e---0--5--7--8-----------------------
    a--------------8--7------------------
    d------------------------------------



    e--7--------------7-5-------3--3--5----
    a--7--------7-5--------5v--------------
    d--7--6v-7h----------------------------



    If u have any correction in it then u can correct it or contact me so that i can also be know what i was doing the mistake . ok

    tabs is own maden by : Mubz guitarist :rockon:
     
  3. shahmyel

    shahmyel GuRu DaDa

    the intro is good but the rest is all mixed up..
    correct it plz
     
  4. bob-bobby

    bob-bobby Extinct or Banned!

    hey , cool mubz , let me try em today then will comment , :)
     
  5. i am waleed

    i am waleed New Member

    pink panther theme


    Intro -
    E-----------------
    B-----------------
    G-----------------
    D-----------------
    A--4-5-6-7--------
    E-----------7--0--

    Verse 1 -
    E--------------------------------------------
    B--------------------------------------------
    G----------------------5-4-------------------
    D----------4-5-----4-5-------5-9-8---5-------
    A--4-5-6-7-----6-7---------7-----------7-5-7-
    E--------------------------------------------

    Verse 2 -
    E----------------------------------
    B----------------------------------
    G----------------------5-4-------7-
    D----------4-5-----4-5-------5-9---
    A--4-5-6-7-----6-7---------7-------
    E----------------------------------

    End -
    E----------------------------------------------------
    B----------------------------------------------------
    G---------9-7----------------------------------------
    D-------------9-7-5---8-7-8-7-8-7-8-7-5------5-------
    A-4-5-6-7-----------7-------------------7------7-5-7-
    E----------------------------------------------------

    To me this tab sounds pretty darn good. try it.
    waleed
     
  6. Zaya

    Zaya New Member

    sounds great to me gj!
     
  7. bob-bobby

    bob-bobby Extinct or Banned!

    @ mubz , tried urs , wasnt very accurate ,...

    @ i am waleed, nice try dude , wanna try em today ,.... :)
     

Share This Page