REQ:pal solo...Indian Idol

Discussion in 'Hindi Guitar Tabs - Submit or Request' started by DrSaurabh, Apr 3, 2005.

  1. DrSaurabh

    DrSaurabh Wh@+s Up D0C

    someone please post the tabs for the pal solo...from the indian idol version...thanx in advance...
     
  2. jazz_guitarguy

    jazz_guitarguy New Member

    i think the solo of kk-pal is same..in that of indian idol...juzz in the indian idol version distortion is used..!

    E |------------------------------------------------------------------------|
    B |------------------------------------------------------------------------|
    G |--------------s-------s---------s--------s-----------s---------s--------|
    D |-----s--2----4/6-----4/6--4----6/7-----9/11--9-----4/6--4----2/4------|
    A |----2/4---4-----------------7------------------------------7-----------|
    E |------------------------------------------------------------------------|


    E |--------------------------------------------------|
    B |--------------------------------------------------|
    G |--------------s-------s---------s-------s---------|
    D |-----s--2----4/6-----4/6--4----6/7-----9/11--9---|
    A |----2/4---4-----------------7---------------------|
    E |--------------------------------------------------|


    E |----------------------------------------------------|
    B |----------------------------------------------------|
    G |------------4---------------------------------------|
    D |----4(h)6-6----4(h)6-4---------------2-----2---2---|
    A |-----------------------7-----2(h)4-4---4-----4-----|
     
  3. jazz_guitarguy

    jazz_guitarguy New Member

    i think the solo of kk-pal is same..in that of indian idol...juzz in the indian idol version distortion is used..!

    E |------------------------------------------------------------------------|
    B |------------------------------------------------------------------------|
    G |--------------s-------s---------s--------s-----------s---------s--------|
    D |-----s--2----4/6-----4/6--4----6/7-----9/11--9-----4/6--4----2/4------|
    A |----2/4---4-----------------7------------------------------7-----------|
    E |------------------------------------------------------------------------|


    E |--------------------------------------------------|
    B |--------------------------------------------------|
    G |--------------s-------s---------s-------s---------|
    D |-----s--2----4/6-----4/6--4----6/7-----9/11--9---|
    A |----2/4---4-----------------7---------------------|
    E |--------------------------------------------------|


    E |----------------------------------------------------|
    B |----------------------------------------------------|
    G |------------4---------------------------------------|
    D |----4(h)6-6----4(h)6-4---------------2-----2---2---|
    A |-----------------------7-----2(h)4-4---4-----4-----|


    wat say?
     
  4. Subhro

    Subhro Argentina lost :"(

    can u giv me da mp3 ?? i'l try 2 tab it ..
    maybe i'l get it in a couple of days.. wil tab thn..

    @jazz_guitarguy.. its not completely da same i guess..
    nyways ur tabs look familiar ;) .. almost like this 1.. http://indianguitartabs.com/showthread.php?t=5047
    wat say ?.... ;)
     

Share This Page