req: Pakistan National Althem

Discussion in 'Pakistani Guitar Tabs - Submit or Request' started by ehtashamsohail, Mar 8, 2005.

  1. ehtashamsohail

    ehtashamsohail New Member

    hi guys i want the tabs of pakistan national allthem with in 18 fret guitar plzzzzzzzzzzzzzzzzzzzzzzz
     
  2. invincible2k

    invincible2k New Member

    e|-------------------------I----------------------I---------------------------
    B|-----------------7-------I---10-----7-----------I------------------7--9h10--
    G|-----------7--9-----7--9-I-------9-----7--------I------------7--9-----------
    D|----7--11----------------I----------------11--9-I--9--11--9-----------------
    A|-------------------------I----------------------I---------------------------
    E|-------------------------I----------------------I---------------------------

    e|----------------I----------------------I-----------------------------------|
    B|--9--7----------I----------------------I--10--12--15--13--12--9s10---------|
    G|--------9--7--6-I--9--7--6--7--6-------I-----------------------------------|
    D|----------------I-----------------9--7-I-----------------------------------|
    A|----------------I----------------------I-----------------------------------|
    E|----------------I----------------------I-----------------------------------|

    e|---9--10--12--14--15--17--18-I--9--10--12-14-15--18--19--18--16--18--16--15--
    B|-----------------------------I-----------------------------------------------
    G|-----------------------------I-----------------------------------------------
    D|-----------------------------I-----------------------------------------------
    A|-----------------------------I-----------------------------------------------
    E|-----------------------------I-----------------------------------------------

    e|--------------------------------------------------------------------------|
    BI--9--7--6--7--6-----------------------------------------------------------|
    G|-----------------8--6-----------------------------------------------------|
    D|--------------------------------------------------------------------------|
    A|--------------------------------------------------------------------------|
    E|--------------------------------------------------------------------------|

    e|-------------------------I----------------------I---------------------------
    B|-----------------7-------I---10-----7-----------I------------------7--9h10--
    G|-----------7--9-----7--9-I-------9-----7--------I------------7--9-----------
    D|----7--11----------------I----------------11--9-I--9--11--9-----------------
    A|-------------------------I----------------------I---------------------------
    E|-------------------------I----------------------I---------------------------

    e|----------------I----------------------I
    B|--9--7----------I----------------------I
    G|--------9--7--6-I--9--7--6--7--6-------I
    D|----------------I-----------------9--7-I
    A|----------------I----------------------I
    E|----------------I----------------------I
     
  3. nadish

    nadish Active Member

    These r the tabs that I've tried, Sounds gud 2 me...

    NOT TABBED BY MY:

    this the 1st part
    Pak Sarzameen Shaad Baab, Kishawar-e-Haseen Shaad Baad
    e -------------------------|---------------------------------------|
    b -------------------------|---10-10-------------------------------|
    g -------6-7-7/9--11--7--9-|---------9-9/11-----7\6-6--------------|
    d ----/7-------------------|-----------------------------9---------|
    a -------------------------|---------------------------------------|
    E -------------------------|---------------------------------------|

    Tu Nisnhan-e-Azm-e-Aalishan, Arz-e-Pakistan
    e -----------------------------------------------------------------|
    b -----------------------7--9--9/10--9-7---------------------------|
    g ---6---6-7-----6---9--------------------9--7--6------------------|
    d -------------9---------------------------------------------------|
    a -----------------------------------------------------------------|
    E -----------------------------------------------------------------|

    Markaz-e-Yaqeen Shaad Baad Pak Sarzameen Ka Nizaam
    e -------------------------|---------------------------------------|
    b -------------------------|---------------------------------------|
    g --9--7-6-7-6-------------|-----------7---------------------------|
    d --------------9--7-------|-/7--9----10--9--6/7-------------------|
    a -------------------------|---------------------------------------|
    E -------------------------|---------------------------------------|

    The 2nd part starts here!
    Qoowat-e-Akhuwwat-e-Awam Qaum, Mulk, Saltanat, Paaindah Taabindah Baad
    e -------------------------|----------------------7-8-7--5-7-4-5---|
    b ---------------7-9-9/7---|-------------9-10----------------------|
    g -----5--7-7/9------------|----7--9-10----------------------------|
    d --9----------------------|---------------------------------------|
    a -------------------------|---------------------------------------|
    E -------------------------|---------------------------------------|

    Shaad Baad Manzil-e-Muraad
    e -------------------------|---------------------------------------|
    b -------------------------|---------------------------------------|
    g ----9--7-6-7-6-----------|---------------------------------------|
    d -----------------9-6/7---|---------------------------------------|
    a -------------------------|---------------------------------------|
    E -------------------------|---------------------------------------|

    repeat the 1st part again!
     
  4. Orange Guitar

    Orange Guitar IGT's ALLROUNDER

    Not my Work. Posts by Nadish and others r oldies.

     
  5. Orange Guitar

    Orange Guitar IGT's ALLROUNDER

    U can play the 7th fret on 5th fret. Sounds same
     

Share This Page