[req] Nenu Nenu Ga Lene

Discussion in 'Telugu Guitar Tabs - Submit or Request' started by ahfoo, Jul 23, 2005.

  1. ahfoo

    ahfoo New Member

    hi guys,

    i love this song......
    its a telugu song.........
    i requested in tamil section but no one responded.........
    can you pleeeeeze give me tabs foe the song....................
    i'm giving you the link for the song

    http://www.dishant.com/album/manmadhudu

    song name is "Nenu Nenu Ga Lene" (its 3rd song in the list)

    i hope you too love melody of it.........


    plz..........
     
  2. ahfoo

    ahfoo New Member

    hey come on guyz,
    anyone do it for me please.....................


    bye
    ahfoo
     
  3. naveenverycool

    naveenverycool New Member

    Nenu nenu ga lenu (Manmadhudu) cool telugu movie guitar tabs
    E --------------------------------
    B --------------------------------
    G -----2-0-2--------------2-0-2---------
    D -0-3---------3-0----0-3-----------------
    A --------------------------------
    E -------------------------------
    nEnu nEnuga lEnE ninna monna laa


    E --------------------------------
    B --------------------------------
    G -----2-0-2--------------2----0-0--------
    D -0-3---------3-0----0-3-----------------
    A --------------------------------
    E -------------------------------
    lEni pOni oohallO emiTO ilaa


    E ------------------------1-0-------
    B -----3-2-3------------3-------------
    G -0-3--------3-0---0-3-----------------
    D --------------------------------
    A --------------------------------
    E -------------------------------
    unna paaTugaa EdO kotta janmalaa


    E -1-0-1-------------------------------
    B --------3-2-3----3---3-----------------
    G ---------------3---3---2-------------
    D --------------------------------
    A --------------------------------
    E -------------------------------

    ippuDE ikkaDE puTTinaTTugaa
    E -----------------------------------------
    B -------1--------1-------------1---------1--
    G -2-1-2----2-1-2---------2-1-2-----2-1-2----
    D -----------------------------------------
    A -----------------------------------------
    E -----------------------------------------
    poola cheTTu ooginaTTU paala boTTu chindinaTTu


    E -------1-0---------------------------
    B -3-2-3-----3-1-------0-1-3-1-------------
    G -----------------------------3-2-----
    D ------------------------------------
    A ------------------------------------
    E ------------------------------------
    allukundi naa chTTu O chiru navvu


    E -------------------------------------------
    B -------1--------1-------------1---------1--
    G -2-1-2----2-1-2---------2-1-2-----2-1-2----
    D -------------------------------------------
    A -------------------------------------------
    E -------------------------------------------
    tEne paTTu rEginaTTu veeNameTTu oNikinaTTu


    E -------1-0---------------------------
    B -3-2-3-----3-1---------0-1-3-1------
    G -------------------------------3-2--
    D ------------------------------------
    A ------------------------------------
    E ------------------------------------
    Jhallumandi gunDellO yevarEnuvvu


    E ---1-0-1-0-----0---0---------------------
    B -------------3---3---3---2-3-2-3-2------
    G -2----------------------------------3-2-----
    D ------------------------------------------
    A ------------------------------------------
    E ------------------------------------------
    naa manasuni maimarapuna munchinaee vaana


    E ---1-0-1-0-----0---0----------0-------------------
    B -------------3---3---3----2-3-------3--1----------
    G -2----------------------------------------333-2---
    D --------------------------------------------------
    A --------------------------------------------------
    E --------------------------------------------------
    meekEvariki kanipinchadu Emainaa...Oh.Oh.OOOh.Oh
     

Share This Page