Req: Mirza

Discussion in 'Hindi Guitar Tabs - Submit or Request' started by notorious_desi, Nov 19, 2004.

  1. notorious_desi

    notorious_desi New Member

    Hey guys,
    im just startin of playin the guitar(about 1 week now).....and im learnin both chords and tabs..
    anyways..i was wondering if anyone had the tabs or chords for mirza--from american desi...
    thanks a lot guy
    btw this forum has been a lota help
     
  2. Punjabi4life007

    Punjabi4life007 New Member

    ----------------------
    -------------0--------
    ---------0------------
    -----2----------------
    ----------------------
    -0--------------------



    ----------0-----------
    ---------------1------
    ------2---------------
    ----------------------
    --0-------------------
    ----------------------


    ----------------------
    -------------0--------
    ---------0------------
    -----2----------------
    ----------------------
    -0--------------------


    ------------0---------
    ---------1------------
    ------2---------------
    ----------------------
    --0-------------------
    ----------------------


    ----------------------
    -------------3--------
    ---------4------------
    -----5----------------
    ----------------------
    --3-------------------

    ----------------------
    --------6-------------
    -----------7----------
    -----7----------------
    ----------------------
    --5-------------------


    ----------------------
    -------------0--------
    ---------0------------
    -----2----------------
    ----------------------
    -0--------------------



    ----------0-----------
    ---------------1------
    ------2---------------
    ----------------------
    --0-------------------
    ----------------------
     
  3. gautam_njoy

    gautam_njoy New Member

    hey which is this song.. neva heard it.. though i have seen the film i dont remember hearing it ...
    wasnt it in the film???
     
  4. DesiPride143

    DesiPride143 BEHAVE!

    yea remember on eid, when salim goes to pray namaz in masjid and he sees the girl and then the song starts.... ring a bell
     
  5. notorious_desi

    notorious_desi New Member

    OMG...thanks a lot guys....this is aswome...
    Harish
     
  6. ROKR

    ROKR New Member

Share This Page