Req: KISS - Psycho Circus tabs

Discussion in 'English Guitar Tabs - Submit or Request' started by Asmodeus, Jan 5, 2005.

  1. Asmodeus

    Asmodeus New Member

    Can ne1 provide tabs for "We Are One", "Journey Of 10,000 Years", "Dreaming", "I Pledge Alligiance To The State Of Rock & Roll"

    KISS RULES! :rock: :nw: :beer: :rockon:
     
  2. rizaaj

    rizaaj Forum Leader

    We Are One

    WE ARE ONE (from the KISS CD "PSYCHO CIRCUS")

    Tuned down 1/2-step

    Key:
    / = slide up
    \ = slide down
    b = bend (whole step)
    b^ = bend (1/2 step)
    b^^ = bend (1 1/2 steps)
    pb = pre-bend
    r = release-bend
    t^ = tap with righthand finger
    h = hammer-on
    p = pull-off
    ~ = Vibrato
    * = Natural Harmonic
    #(#) = Trill
    ** = Artificial Harmonic
    x = Dead notes (no pitch)
    P.M. = Palm mute (- -> underneath indicates which notes)
    (\) = Dive w\bar
    (/) = Release w\bar
    Tp = Tap w\plectrum


    Riff 1a (clean electric)

    Eb|-------------------------------------------------------------------|
    Bb|-7----7--7-7--7-7--7----7----7--7-7--7-7--7----5----5--5-5--5-5--5-|
    Gb|-8----8--8-8--8-8--8----6----6--6-6--6-6--6----6----6--6-6--6-6--6-|
    Db|-9----9--9-9--9-9--9----9----9--9-9--9-9--9----6----6--6-6--6-6--6-|
    Ab|-------------------------------------------------------------------|
    Eb|-------------------------------------------------------------------|



    Eb|-------------------------------------------------------------------|
    Bb|--2----2--2-2--2-2--2----------------------------------------------|
    Gb|--3----3--3-3--3-3--3----------------------------------------------|
    Db|--4----4--4-4--4-4--4----------------------------------------------|
    Ab|-------------------------------------------------------------------|
    Eb|-------------------------------------------------------------------|


    Riff 1b (clean electric)

    Eb|-------------------------------------------------------------------|
    Bb|-7----7--7-7--7-7--7----7----7--7-7--7-7--7----0----0--0-0--0-0--0-|
    Gb|-8----8--8-8--8-8--8----6----6--6-6--6-6--6----1----1--1-1--1-1--1-|
    Db|-9----9--9-9--9-9--9----9----9--9-9--9-9--9----2----2--2-2--2-2--2-|
    Ab|-------------------------------------------------------------------|
    Eb|-------------------------------------------------------------------|



    Eb|-------------------------------------------------------------------|
    Bb|--2----2--2-2--2-2--2----------------------------------------------|
    Gb|--3----3--3-3--3-3--3----------------------------------------------|
    Db|--4----4--4-4--4-4--4----------------------------------------------|
    Ab|-------------------------------------------------------------------|
    Eb|-------------------------------------------------------------------|



    Riff 2 (overdriven guitar)

    Eb|-------------------------------------------------------------------|
    Bb|-------------------------------------------------------------------|
    Gb|--4----------------------------------------------------------------|
    Db|--4---------------4---------------2---------------4----------------|
    Ab|--2---------------4---------------2---------------4----------------|
    Eb|------------------2---------------0---------------2----------------|



    Riff 3 (12-string acoustic)

    Eb|-------------------------------------------------------------------|
    Bb|------------------------7-----7----7--7-7--7-7--7------------------|
    Gb|---9----9--9-8---8--8/9-------6----6--6-6--6-6--6------------------|
    Db|-------------------------------------------------------------------|
    Ab|-------------------------------------------------------------------|
    Eb|-------------------------------------------------------------------|
    <- - - - - 3x - - - - - ->




    Riff 4 (clean electric)

    Eb|-------------------------------------------------------------------|
    Bb|--7---7-----7---7-----5---5-----2---2------------------------------|
    Gb|--8---8-----6---6-----4---4-----3---3------------------------------|
    Db|--9---9-----9---9-----6---6-----4---4------------------------------|
    Ab|-------------------------------------------------------------------|
    Eb|-------------------------------------------------------------------|







    Riff 5 (overdriven guitar)

    Eb|-------------------------------------------------------------------|
    Bb|-------------------------------------------------------------------|
    Gb|--4--4-------------------------------------------------------------|
    Db|--4--4------------4--4------------2--------------------------------|
    Ab|--2--2------------4--4------------2--------------------------------|
    Eb|------------------2--2------------0--------------------------------|






    Riff 6a (semi-clean guitar, let ring)

    Eb|-------------------------------------------------------------------|
    Bb|-------------------------------------------------------------------|
    Gb|---4----2----1--2--1----4------2----1--2--1------4----2----1-------|
    Db|--------------------------------------------------------------2----|
    Ab|-----------------------------------------------------------------2-|
    Eb|-0----0----0-----------------0-----------------0-------------------|
    <- - - - - - - - - - 2x - - - - - - - - - ->


    Eb|-------------------------------------------------------------------|
    Bb|-------------------------------------------------------------------|
    Gb|--------------------------4----2----1------------------------------|
    Db|-4------2----1--2--1-------------------2-------2-------2-------2/4-|
    Ab|------2-----------------------------------0---------0-------0------|
    Eb|------------------------0------------------------------------------|


    Eb|-------------------------------------------------------------------|
    Bb|-------------------------------------------------------------------|
    Gb|-----4----2----1---------------------------------------------------|
    Db|------------------2-------4-------2----1--2--1----2----------------|
    Ab|---------------------2---------2-----------------------------------|
    Eb|--0----------------------------------------------------------------|



    Riff 6b (clean electric with chorus and reverb)


    Eb|-7-----------0-7----5----4-0---2----0------------0-7----5----4-0---|
    Bb|----5------------------------0----------4h-5p-4--------------------|
    Gb|-----------------------------------------------------------------2-|
    Db|-------------------------------------------------------------------|
    Ab|-------------------------------------------------------------------|
    Eb|-------------------------------------------------------------------|



    Eb|--0------0------0h2----0-7----5----4-0----2------0-----------------|
    Bb|----------------------------------------0-------------4h-5p-4--5---|
    Gb|---------------------------------------------------------------4---|
    Db|---------------------------------------------------------------6---|
    Ab|-------------------------------------------------------------------|
    Eb|-------------------------------------------------------------------|

    We are one
    Simmons

    [Intro: Riff 1a]

    [Riff 1a]
    You are not alone
    But how long can you run
    It¥smuch to late if you don¥t lnow
    What you¥ve got ¥til it¥s gone

    Once upon a time you were a child
    But that was yesterday
    Believed that magic in your heart
    Would never fade away

    But, hold your head up high
    And let your spirits fly
    Keep hope alive yes deep inside
    And your dreams will never die

    [Riff 1b and Riff 2]
    We are one, everywhere I go
    Everyone I see
    And I see my face looking back at me
    We are one, everything I know
    What I know is true
    Everyone of us lives inside of you
    We are one
    We are one

    [Riff 1a and Riff 3]
    Take a breath, and close your eyes
    You¥re on the road again
    And then you realise they brought you
    Back to life again

    Some things never change
    But if you fantasize
    You¥ll feel it deep inside yourself
    And then you¥ll realise

    When you feel it coming
    When you hear the sound
    You¥ll always laugh when you mant to cry
    And then you¥ll feel it deep inside

    [Riff 1b and Riff 2]
    We are one, everywhere I go
    Everyone I see
    And I see my face looking back at me
    We are one, everything I know
    What I know is true
    Everyone of us lives inside of you
    We are one
    We are one




    [Riff 4]
    You are me, I am you
    What you see is all true
    You are me, I am you
    What you see is all true
    You are me, I am you
    What you see is all true

    [Riff 1b, Riff 2 and Riff 3]
    We are one
    We are one
    [Riff 5]

    [Riff 6a and Riff 6b]

    :rock:
     
  3. rizaaj

    rizaaj Forum Leader

    Journey Of 1000 Years

    Rhythm Fig. 1 (acoustic, staccato)

    E|--0--0--0--0--0--0--0--0--0--0--0--0--0--0--0--0---------|
    B|--0--0--0--0--0--0--0--0--0--0--0--0--0--0--0--0---------|
    G|--0--0--0--0--0--0--0--0--0--0--0--0--0--0--0--0---------|
    D|--2--2--2--2--2--2--2--2--2--2--2--2--2--2--2--2---------|
    A|--2--2--2--2--2--2--2--2--2--2--2--2--2--2--2--2---------|
    E|--0--0--0--0--0--0--0--0--0--0--0--0--0--0--0--0---------|





    E|--3--3--3--3--3--3--3--3--3--3--3--3--3--3--3--3---------|
    B|--5--5--5--5--5--5--5--5--5--5--5--5--5--5--5--5---------|
    G|--5--5--5--5--5--5--5--5--5--5--5--5--5--5--5--5---------|
    D|--5--5--5--5--5--5--5--5--5--5--5--5--5--5--5--5---------|
    A|--3--3--3--3--3--3--3--3--3--3--3--3--3--3--3--3---------|
    E|---------------------------------------------------------|



    Rhythm Fig. 2 (acoustic)

    E|--0---0---0--0----0------0---0---0--0----0---------------|
    B|--0---0---0--0----0------0---0---0--0----0---------------|
    G|--0---0---0--0----0------0---0---0--0----0---------------|
    D|--2---2---2--2----2------2---2---2--2----2---------------|
    A|--2---2---2--2----2------2---2---2--2----2---------------|
    E|--0---0---0--0----0------0---0---0--0----0---------------|



    E|--0---0---0--0----0------0---0---0--0----0---------------|
    B|--1---1---1--1----1------1---1---1--1----1---------------|
    G|--0---0---0--0----0------0---0---0--0----0---------------|
    D|--2---2---2--2----2------2---2---2--2----2---------------|
    A|--3---3---3--3----3------3---3---3--3----3---------------|
    E|---------------------------------------------------------|



    Rhythm Fig. 3 (semi-clean electric)

    E|---------0-----------0-------------0-----------0---------|
    B|------------0-----------0-------------0-----------0------|
    G|---------------------------------------------------------|
    D|---------------------------------------------------------|
    A|-----------------------------------------0---------------|
    E|---0-----------2-------------3---------------------------|



    E|--------0-----------0-------------0-----------0----------|
    B|-----------0-----------0-------------0-----------0-------|
    G|---------------------------------------------------------|
    D|---------------------------------------------------------|
    A|--3-----------5-------------7-----------9----------------|
    E|---------------------------------------------------------|



    Rhythm Fig. 4

    E|--0------------------------------------------------------|
    B|--0--------------------3---------------------------------|
    G|--9---------5----------0-----------7-------------------4-|
    D|--9---------5----------0-----------7----7--------4--7----|
    A|--7---------3----------x-----------5-------5--6----------|
    E|--0--------------------3---------------------------------|
    Let ring - - - - - - >



    Rhythm Fig. 5

    E|---------------------------------------------------------|
    B|----------------------------3----------------------------|
    G|-11\9-9----9---7\5-5----5---0--------------------------4-|
    D|----------------------------0-----------7--------4--7----|
    A|-9\-7-7----7---5\3-3----3---x-------5------5--6----------|
    E|----------------------------3----------------------------|
    Let ring - - - - - - >



    Rhythm Fig. 6

    E|--0------------------------------------------------------|
    B|--0------------------------------------------------------|
    G|--9------------------------------------------------------|
    D|--9------------------------------------------------------|
    A|--7------------------------------------------------------|
    E|--0------------------------------------------------------|



    Rhythm Fig. 7

    E|--0------------------------------------------------------|
    B|--0------------------------------------------------------|
    G|--9------------------------------5-------------7---------|
    D|--9------------------------------5-------------7---------|
    A|--7------------------------------3-------------5---------|
    E|--0------------------------------------------------------|



    Solo

    E|-------------------------------------------------------------------|
    B|------9h10-9-------------------------------------------------------|
    G|---------------9---------------------------------------------------|
    D|--------------------9----------------------------------------------|
    A|--------------------------11~--------11----9----7~--------5--7/-10-|
    E|-------------------------------------------------------------------|



    E|-------------------------------------------------------------------|
    B|-------------------------9h10-9------------------------------------|
    G|-----------------------------------9-----------9-------------------|
    D|----------------------------------------9--------------------------|
    A|--9~------------------------------------------------------11----9--|
    E|-------------------------------------------------------------------|



    E|-------------------------------------------------------------------|
    B|---------------------------------------------------9----10----12~--|
    G|----------------------------------------------9--------------------|
    D|-------------------------------------------------------------------|
    A|--7~---------5--7/-10---12-----------------------------------------|
    E|-------------------------------------------------------------------|



    E|-------------------------------------------------------------------|
    B|-----9h10-9--------------------------------------------------------|
    G|--------------9----------------------------------------------------|
    D|-------------------9-----------------------------------------------|
    A|------------------------11~--------11----9----7----------5--7/-10--|
    E|-------------------------------------------------------------------|




    E|-------------------------------------------------------------------|
    B|-------------------------------------------------------------------|
    G|-------------------------------------------------------------------|
    D|-------------------------------------------------------------------|
    A|--9~--------7~--------7~--------7~-------7--7--7--7--7--7---7~-----|
    E|-------------------------------------------------------------------|
    Feedback


    E|-------------------------------------------------------------------|
    B|-------------------------------------------------------------------|
    G|---7/9-----------------------------5----------------7--------------|
    D|---7/9-----------------------------5----------------7--------------|
    A|-------------------------------------------------------------------|
    E|-0-----------------------------------------------------------------|
    Manipulate toggle switch - - - - - - - - - - - - - - - - >





    Journey of a 1,000 years
    Simmons

    [Rhy. Fig 1]

    [Rhy. Fig 1]
    I know just where you come from
    Where all tour yesterdays are gone

    [Rhy. Fig 2]
    And now you¥re done
    But you¥ve only just begun
    It¥s time you opened up the door

    [Rhy. Fig 3]
    And now it¥s all very clear
    This journey of a 1,000 years

    [Rhy. Fig 4]
    Can you feel it coming
    Can you hear the sound
    Can you feel it coming
    Or is it the roar of the crowd

    Can you feel it coming
    Can you hear it
    Or is it the roar of the crowd

    [Rhy. Fig 5]
    Did you sleep without dreams
    Did you fly without wings
    Did you touch without feel
    Where nothing is real

    Did you feel it coming
    Did you hear it
    Or is it the roar of the crowd
    [Rhy. Fig 6]

    [Rhy. Fig 7]

    [Solo over Rhy. Fig 7]

    :rock: :rock:
     
  4. rizaaj

    rizaaj Forum Leader

    Dreamin I

    Rhythm Fig. 1

    Eb|-------------------------------------------------------------|
    Bb|----------------0h1-0----------------------------0-1-0-------|
    Gb|--4----4---4-4---------2h4p2---------0-----------------2-----|
    Db|--2----2--------------------------2-----2-----4--------------|
    Ab|-------------------------------3-----------5-----------------|
    Eb|-------------------------------------------------------------|



    Eb|-------------------------------------------------------------|
    Bb|----------------0h1-0----------------------3------3----------|
    Gb|--4----4---4-4---------2h4p2---------0-----0------2----------|
    Db|--2----2--------------------------2-----2--0------0----------|
    Ab|-------------------------------3-----------x-----------------|
    Eb|-------------------------------------------3-----------------|



    Eb|-------------------------------------------------------------|
    Bb|----------------0h1-0----------------------------0-1-0-------|
    Gb|--4----4---4-4---------2h4p2---------0-----------------2-----|
    Db|--2----2--------------------------2-----2-----4--------------|
    Ab|-------------------------------3-----------5-----------------|
    Eb|-------------------------------------------------------------|


    Eb|-------------------------------------------------------------|
    Bb|----------------0h1-0----------------------------------------|
    Gb|--4----4---4-4---------2h4p2---------0-----------0-----------|
    Db|--2----2--------------------------2-----2-----4-----4--------|
    Ab|-------------------------------3-----------5-----------------|
    Eb|-------------------------------------------------------------|



    Rhythm Fig. 2a

    Eb|-10--------------10----------10--8----------8--8-------------|
    Bb|-----11------11------11-------------11------------10------10-|
    Gb|---------12--------------12-------------10------------10-----|
    Db|-------------------------------------------------------------|
    Ab|-------------------------------------------------------------|
    Eb|-------------------------------------------------------------|



    Eb|--8-----------8--------8----6--------6--5--------5-----------|
    Bb|-----8-----8-----8-------------6-----------6-----------------|
    Gb|--------9-----------9-------------7-----------5--------------|
    Db|-------------------------------------------------------------|
    Ab|-------------------------------------------------------------|
    Eb|-------------------------------------------------------------|



    Eb|-10--------------10----------10--8----------8--8-------------|
    Bb|-----11------11------11-------------11------------10------10-|
    Gb|---------12--------------12-------------10------------10-----|
    Db|-------------------------------------------------------------|
    Ab|-------------------------------------------------------------|
    Eb|-------------------------------------------------------------|
    < - - - - - - - - - Play 2x first time, 1x second - - - - - - >


    Rhythm Fig. 2b

    Eb|--8-----------8--------8----6--------6--5--------5-----------|
    Bb|-----8-----8-----8-------------6-----------6-----------------|
    Gb|--------9-----------9-------------7-----------5--------------|
    Db|-------------------------------------------------------------|
    Ab|-------------------------------------------------------------|
    Eb|-------------------------------------------------------------|



    Eb|-10--------------10----------10--8----------8--8-------------|
    Bb|-----11------11------11-------------11------------10------10-|
    Gb|---------12--------------12-------------10------------10-----|
    Db|-------------------------------------------------------------|
    Ab|-------------------------------------------------------------|
    Eb|-------------------------------------------------------------|




    Rhythm Fig. 3

    Eb|-------------------------------------------------------------|
    Bb|--------4-----------6-------------8------------10------------|
    Gb|-----------5-----------7-------------8-------------10--------|
    Db|-----5-----------7-------------8-----------10----------------|
    Ab|--3-----------5-------------6-----------8--------------------|
    Eb|-------------------------------------------------------------|
    < - - - - - - - - - - - - - 2x - - - - - - - - - - - - - >



    Rhythm Fig. 4

    Eb|-------------------------------------------------------------|
    Bb|-------------------------------------------------------------|
    Gb|--8--8--8--8--10--10--10--10---7--7--7--7--------------------|
    Db|--8--8--8--8--10--10--10--10---7--7--7--7--5--5--5--5--------|
    Ab|--6--6--6--6--8---8---8---8----5--5--5--5--5--5--5--5--------|
    Eb|--6--6--6--6--8---8---8---8----5--5--5--5--3--3--3--3--------|



    Eb|-------------------------------------------------------------|
    Bb|-------------------------------------------------------------|
    Gb|--8--8--8--8--10--10--10--10---------------------------------|
    Db|--8--8--8--8--10--10--10--10---------------------------------|
    Ab|--6--6--6--6--8---8---8---8--------------------3--5----------|
    Eb|--6--6--6--6--8---8---8---8-----3~---5~---6~-----------------|



    Eb|-------------------------------------------------------------|
    Bb|-------------------------------------------------------------|
    Gb|--8--8--8--8--10--10--10--10---7--7--7--7--------------------|
    Db|--8--8--8--8--10--10--10--10---7--7--7--7--5--5--5--5--------|
    Ab|--6--6--6--6--8---8---8---8----5--5--5--5--5--5--5--5--------|
    Eb|--6--6--6--6--8---8---8---8----5--5--5--5--3--3--3--3--------|



    Eb|-------------------------------------------------------------|
    Bb|-------------------------------------------------------------|
    Gb|--8--8--8--8--8--8--8--8---10--10--10--10--10--10--10--10----|
    Db|--8--8--8--8--8--8--8--8---10--10--10--10--10--10--10--10----|
    Ab|--6--6--6--6--6--6--6--6---8---8---8---8---8---8---8---8-----|
    Eb|--6--6--6--6--6--6--6--6---8---8---8---8---8---8---8---8-----|



    Rhythm Fig. 5

    Eb|-------2-----------------------------------------------------|
    Bb|-------2-----------------------------------------------------|
    Gb|-------2--------------7----7----9----9-----------------------|
    Db|--4-------------------7----7----9----9-----------------------|
    Ab|--4-------------------5----5----7----7-----------------------|
    Eb|--2----------------------------------------------------------|


    Continued >> next Post ( No Space here)
     
  5. rizaaj

    rizaaj Forum Leader

    Dreamin II

    Rhythm Fig. 6

    Eb|--------------3----------------------------------------------|
    Bb|--------3-------3-----3---------1------1---------------------|
    Gb|-----3-----3-------3---------3-----3------2------2-----------|
    Db|--5-----------------------3-------------------3--------------|
    Ab|-------------------------------------------------------------|
    Eb|-------------------------------------------------------------|


    Eb|----------------0--------------------------------------------|
    Bb|---------1------------1------------3------1--------1---------|
    Gb|-----0------0------0-----0------3-----3------2---------------|
    Db|--2--------------------------3------------------3------------|
    Ab|-------------------------------------------------------------|
    Eb|-------------------------------------------------------------|


    Eb|--------------3----------------------------------------------|
    Bb|--------3-------3-----3---------1------1---------------------|
    Gb|-----3-----3-------3---------3-----3------2------------------|
    Db|--5-----------------------3-------------------3--------------|
    Ab|-------------------------------------------------------------|
    Eb|-------------------------------------------------------------|



    Riff 1
    Eb|-------------------------------------------------------------|
    Bb|-------------------------------------------------------------|
    Gb|-------------------------------------------------------------|
    Db|-------------------------------------------------------------|
    Ab|-------------------------------------------------------------|
    Eb|------2b^---r2-------------------------2b^---r2--------------|



    Riff 2

    Eb|--12----------------12-----------15----17--------------------|
    Bb|--15b~--------------15b~---------18b---20b-------------------|
    Gb|-------------------------------------------------------------|
    Db|-------------------------------------------------------------|
    Ab|-------------------------------------------------------------|
    Eb|-------------------------------------------------------------|



    Riff 3

    Eb|-------------------------------------------------------------|
    Bb|--12----------------12---------------------------------------|
    Gb|--14b~--------------14b~-------------------------------------|
    Db|-------------------------------------------------------------|
    Ab|-------------------------------------------------------------|
    Eb|-------------------------------------------------------------|




    Solo

    Eb|-------------------------------------------------------------|
    Bb|-------------------------------------------------------------|
    Gb|----------------------------------9h11----11~--------14--16--|
    Db|------------7-9-11~----11~-----------------------------------|
    Ab|--/9~-----9--------------------------------------------------|
    Eb|-------------------------------------------------------------|


    Eb|-------------------------------------------------------------|
    Bb|-------------------------------------------------------------|
    Gb|--16b--16b--16b--16b-------pb16-r16--pb16-r16--pb16-r16~-----|
    Db|-------------------------------------------------------------|
    Ab|-------------------------------------------------------------|
    Eb|-------------------------------------------------------------|


    Eb|-------------------------------------------------------------|
    Bb|----------------------------------------17b-17b-17b-r17--14~-|
    Gb|-14h16p14----14-14h16p14----x-14h16p14-----------------------|
    Db|----------16-------------16----------------------------------|
    Ab|-------------------------------------------------------------|
    Eb|-------------------------------------------------------------|


    Eb|--------------------------------------17b-r17-14-------------|
    Bb|--17b~--------17b-17b-17b-r17--14~---------------17b-r17-14--|
    Gb|-------------------------------------------------------------|
    Db|-------------------------------------------------------------|
    Ab|-------------------------------------------------------------|
    Eb|-------------------------------------------------------------|


    Eb|-------------------------------------------------------------|
    Bb|-------------------------------------------------------------|
    Gb|--16b-r16p14-------------------------------------------------|
    Db|-------------17~---------------------------------------------|
    Ab|-------------------------------------------------------------|
    Eb|-------------------------------------------------------------|
    Feedback




    Dreaming
    Stanley, Kulick

    [Rhy. Fig 1 with Riff 1]

    [Rhy. Fig 2a]
    Close your eyes and take a look at your life
    Do you like what you see?
    My eyes are open but I feel like I´m blind
    It´s all returning to me
    [Rhy. Fig 2b]
    I want to know
    Does a frozen river flow
    Things we said, fill my head
    Lying in a cold and empty bed

    [Rhy. Fig 1 with Riff 1]
    I´m only dreaming
    Between the darkness and the light
    I´m only dreaming
    Oh ooh
    Dreaming
    Can´t tell the daylight from the night
    I´m only dreaming
    Dreaming

    [Rhy. Fig 2a]
    I feel the sunshine shining down on my face
    Not a cloud in my mind
    I get my wake up
    But it never comes in time

    [Rhy. Fig 3]
    My prayers are spoken and I wait to recieve
    Cause there´s a fine line between the truth
    And how we want it to be

    [Rhy. Fig 1 with Riff 1]
    I´m only dreaming
    Between the darkness and the light
    I´m only dreaming
    Oh ooh
    Dreaming
    Can´t tell the daylight from the night
    I´m only dreaming
    Dreaming

    [Rhy. Fig 4]
    I´m sailing like a ship on the sea
    I don´t care if I´m lost in the haze
    I hear the angels singing softly to me
    Time´s the enemy
    That you never see
    Won´t you come and slip away

    [Solo over Rhy. Fig 5]

    [Rhy. Fig 6]

    [Rhy. Fig 1 with Riff 1]
    I amd only dreaming
    I´m only dreaming
    I´m only dreaming
    Yeah
    I am only dreaming

    [Rhy. Fig 1 with Riff 2]
    I´m only dreaming
    I´m only dreaming
    Yeah
    I´m only dreaming
    Dreaming

    [Rhy. Fig 1 with Riff 2 and Riff 3]

    :rock: :rock: :rock:
     
  6. rizaaj

    rizaaj Forum Leader

    I Pledge Allegiance To The State Of Rock And Roll I

    Rhythm Fig. 1
    E|------------------------------------------------------------------|
    B|--10----10--------------------------------------------------------|
    G|---7-----6--------------------------------------------------------|
    D|------------------------------------------------------------------|
    A|------------------------------------------------------------------|
    E|------------------------------------------------------------------|
    <7x> <9x>
    Rhythm Fig. 1a

    E|------------------------------------------------------------------|
    B|--3---------------------------------------------------------------|
    G|--2--------------2------------------------------------------------|
    D|--0--------------2------------------------------------------------|
    A|--0--------------0------------------------------------------------|
    E|------------------------------------------------------------------|

    Rhythm Fig. 2

    E|------------------------------------------------------------------|
    B|--10----10/-10-10/-10---10-----10----10-10-10-------------------|
    G|---7-----6/--7--6/--7---9------9-----9--9--9--9---9h^11-9h^11---|
    D|----------------------------------------------9---9-----9---------|
    A|------------------------------------------------------------------|
    E|------------------------------------------------------------------|
    <7x> <6x>

    Rhythm Fig. 2a
    E|------------------------------------------------------------------|
    B|--3---------------------------------------------------------------|
    G|--2--------------2-----------------2--------------9---------------|
    D|--0--------------2-----------------2--------------9---------------|
    A|--0--------------0-----------------0--------------7---------------|
    E|--------------------------------------------------0---------------|

    Rhythm Fig. 3
    E|--3--------------------------3-----------1------3-3-3-3-3-3-3-3---|
    B|--3-----3--------------------3-----3-----1------3-3-3-3-3-3-3-3---|
    G|--0-----2-----2--------------0-----2-----2------0-0-0-0-0-0-0-0---|
    D|--0-----0-----2--------------0-----0-----3------0-0-0-0-0-0-0-0---|
    A|--x-----------0--------------x-----------3------x-x-x-x-x-x-x-x---|
    E|--3--------------------------3-----------1------3-3-3-3-3-3-3-3---|


    Rhythm Fig 4
    E|-----------------------------3--3--3------------------------3-----|
    B|-----------------------------3--3--3--3---------------------3-----|
    G|-----2-------2----------2----0--0--0--2---------------------0-----|
    D|-----2-------2----------2----0--0--0--0---------------------0-----|
    A|-----0-------0----------0----x--x--x------------------------x-----|
    E|-3b^-----3b^--------3b^------3--3--3------------------------3-----|
    <-------5x---->

    Rhythm Fig 4a
    E|-----------------------------3-3-3-3------------------------3-----|
    B|-----------------------------3--3--3--3---------------------3-----|
    G|-----2-------2----------2----0--0--0--2---------------------0-----|
    D|-----2-------2----------2----0--0--0--0---------------------0-----|
    A|-----0-------0----------0----x--x--x------------------------x-----|
    E|-3b^-----3b^---------3b^-----3--3--3------------------------3-----|
    <-------5x------> <-----2x---->

    Rhythm Fig. 5
    E|------------------------------------------------------------------|
    B|------------------------------------------------------------------|
    G|----2-----------2-----2-------------------------------------------|
    D|----2-----------2-----2-------------------------------------------|
    A|----0-----------0-----0-------------------------------------------|
    E|-3b^---------3b^---3b^--------------------------------------------|

    Rhythm Fig. 6
    E|------------------------------------------------------------------|
    B|------------------------------------------------------------------|
    G|----2-----------2-----2-----5--7--7--5--7---5--7---7--5---7--7--5-|
    D|----2-----------2-----2-----5--7--7--5--7---5--7---7--5---7--7--5-|
    A|----0-----------0-----0-------------------------------------------|
    E|-3b^---------3b^---3b^--------------------------------------------|
    <-------------------------------2x----------------------------->

    E|------------------------------------------------------------------|
    B|------------------------------------------------------------------|
    G|----2-----------2-----2-----5--7--7--5--7---5--7---7--5---7--7--5-|
    D|----2-----------2-----2-----5--7--7--5--7---5--7---7--5---7--7--5-|
    A|----0-----------0-----0-------------------------------------------|
    E|-3b^---------3b^---3b^--------------------------------------------|

    E|------------------------------------------------------------------|
    B|------------------------------------------------------------------|
    G|------------------------------------------------------------------|
    D|--2----2----2----2-----2----2----2--------------------------------|
    A|--2----2----2----2-----2----2----2--------------------------------|
    E|--0----0----0----0-----0----0----0--------------------------------|

    Rhythm Fig. 7
    E|---------------------------------------------------------------|
    B|---------------------------------------------------------------|
    G|-----2-----2-------------------2-------------------------------|
    D|-----2-----2-------------------2-------------------------------|
    A|-----0-----0-------------------0-------------------------------|
    E|-3b^---3b^-----------------------------------------------------|


    Solo
    E|---------------------------------------------------------------|
    B|--7b^-r7--5-7p5---5~-------------------------------------------|
    G|--7b^-r7--5-7p5---5~--------5~---------------------------------|
    D|----------------7--------------7-------------/7~---------------|
    A|------------------------5-7--------7-6-5-3---------------------|
    E|-------------------------------------------5-------------------|

    E|-------------------------------------------------8b~--8--5-----|
    B|--8p^5----8--8-8p^5-----8-8p^5-8p^5-----8b~-8b~-------------8--|
    G|-------7------------7---------------7--------------------------|
    D|---------------------------------------------------------------|
    A|---------------------------------------------------------------|
    E|---------------------------------------------------------------|

    E|-----------------------------------15-15-15--------------------|
    B|--8b~~~~~----------------------15b----------r15p^13----15------|
    G|----------------------------------------------------14---------|
    D|---------------------------------------------------------------|
    A|---------------------------------------------------------------|
    E|---------14\---------------------------------------------------|

    E|---------------------------------------------------------------|
    B|--15b-r15---15b-r15---15b-r15---15b-r15----15b~----------------|
    G|---------------------------------------------------------------|
    D|---------------------------------------------------------------|
    A|---------------------------------------------------------------|
    E|---------------------------------------------------------------|

    E|-------------------------------12------------------------------|
    B|--8b-8b-8b-r8p^5-8b~~~~----12b----r12-12-10-8b^--r8~~--8p^5----|
    G|---------------------------------------------------------~--7--|
    D|---------------------------------------------------------------|
    A|---------------------------------------------------------------|
    E|---------------------------------------------------------------|

    E|------------8--10----10b-r10-10b-r10-10b-r10--8------15b~~~----|
    B|--5-----/10----------------------------------------------------|
    G|---------------------------------------------------------------|
    D|---------------------------------------------------------------|
    A|---------------------------------------------------------------|
    E|---------------------------------------------------------------|

    E|--19b--19-19b-19-17--15b--15b-15p^12---------------------------|
    B|-------------------------------------15p^12--------------------|
    G|---------------------------------------------14p^12------------|
    D|-----------------------------------------------------14\-------|
    A|---------------------------------------------------------------|
    E|---------------------------------------------------------------|

    Continued In NEXT POST : no space here
     
  7. rizaaj

    rizaaj Forum Leader

    I Pledge Allegiance To The State Of Rock And Roll II

    Riff 1
    E|---------------------------------------------------------------|
    B|---------------------------------------------------------------|
    G|--/12~-12~-11~-------------------------------------------------|
    D|----------------12~--11~---------------------------------------|
    A|---------------------------------------------------------------|
    E|---------------------------------------------------------------|

    E|---------------------------------------------------------------|
    B|---------------------------------------------------------------|
    G|--/12~--10~------------5~~--5b~~-------------------------------|
    D|------------10~--7---------------------------------------------|
    A|---------------------------------------------------------------|
    E|---------------------------------------------------------------|


    I Pledge Allegiance to the State of Rock & Roll
    Stanley, Knight, Cuomo

    [Rhythm Fig 1]
    [Rhythm Fig 1] w/[Rhythm Fig. 1a]

    [Rhythm Fig 2] w/[Rhythm Fig. 2a](2x)
    Lookin' back yeah I feel alright
    Gettin' more than my expectations
    Yeah my future looks clear and bright
    And I'm livin' up to my reputation

    [Rhythm Fig. 3] w/[Riff.1]
    Yeah I'm satisfied
    yeah until the day I die

    [Rhythm Fig. 4]
    I gave my blood and I gave my soul
    I stood my ground and I took control
    The legend's growin as the story's told
    I pledge allegiance to the state of
    Rock & Roll, Oh Yeah!
    [Rhythm Fig. 5]
    [Rhythm Fig. 2] w/[Rhythm Fig. 2a]

    [Rhythm Fig. 2] w/[Rhythm Fig. 2a](2x)
    I've been a rebel for all my life
    I never cared about regulations
    I only went for the things I liked
    And my guitar was my inspiration

    [Rhythm Fig. 3] w/[Riff.1]
    Yeah we pay a price
    Yeah I made the sacrifice

    [Rhythm Fig. 4a](2x)
    I gave my blood and I gave my soul
    I stood my ground and I took control
    The legend's growin as the story's told
    I know that heaven's gotta wait
    I pledge allegiance to the state of
    Rock & Roll

    [Solo] w/[Rhythm Fig. 6] then [Rhythm Fig. 2b]

    [Rhythm Fig. 3] w/[Riff.1]
    Yeah I'm satisfied
    Yeah until the day I die

    [Rhythm Fig. 4]
    I gave my blood and I gave my soul
    I stood my ground and I took control
    The legend's growin as the story's told
    I know that heaven's gotta wait

    [Rhythm Fig. 4a]
    I gave my blood and I gave my soul
    I stood my ground and I took control
    The legend's growin' as the story's told
    I know that heaven's gotta wait
    I pledge allegiance to the state of
    [Rhythm Fig. 5]
    Rock & Roll

    [Rhythm Fig. 7]
    Rock & Roll

    :rock: :rock: :rock: :rock:
     
  8. rizaaj

    rizaaj Forum Leader

  9. Asmodeus

    Asmodeus New Member

    ANywayz... thanks Rizaaj... i tried to search for em at Fretplay, but like didnt get em & i didnt know of Ultimate Guitar... thanks man,,
     

Share This Page