req: karma lead

Discussion in 'Hindi Guitar Tabs - Submit or Request' started by boxer, Apr 12, 2005.

  1. boxer

    boxer New Member

    hey plzz can any one send me karma lead and main part plzz
     
  2. awaz_bass

    awaz_bass Don't mistake for F*RT

    Its Karma a band name or Song Name?
    Can you post more details like what is the song name, singer, movie name etc

    bye then
     
  3. jazz_guitarguy

    jazz_guitarguy New Member

    Track 4

    E||--6----5----6----|
    B||-----------------|
    G||-----------------|
    D||-----------------|
    A||-----------------|
    E||-----------------|



    --14--14--14--14--14--14--14--14--14--14--14--14--14--14--14--14--|
    ------------------------------------------------------------------|
    ------------------------------------------------------------------|
    ------------------------------------------------------------------|
    ------------------------------------------------------------------|
    ------------------------------------------------------------------|



    --14-----16--13-----11-----9--|
    ------------------------------|
    ------------------------------|
    ------------------------------|
    ------------------------------|
    ------------------------------|



    --9--9--9--9--9--9--9--9--9--9--9--9--9--9--9--9--|--9-----6-----4-----2-----|
    --------------------------------------------------|--------------------------|
    --------------------------------------------------|--------------------------|
    --------------------------------------------------|--------------------------|
    --------------------------------------------------|--------------------------|
    --------------------------------------------------|--------------------------|



    --7--7--7--7--7--7--7--7--7--7--7--7--7--7--7--7--|
    --------------------------------------------------|
    --------------------------------------------------|
    --------------------------------------------------|
    --------------------------------------------------|
    --------------------------------------------------|



    --7-----11--10----------------|
    -------------------12-----11--|
    ------------------------------|
    ------------------------------|
    ------------------------------|
    ------------------------------|



    -----------------------------------------10--10--11--11--|
    --11--11--11--11--11--11--11--11------------------|
    --------------------------------------------------|
    --------------------------------------------------|
    --------------------------------------------------|
    --------------------------------------------------|



    --13--13--13--14--16--16--16--14--|--13--13--13---14--13--11--10--11--|
    ----------------------------------|-----------------------------------|
    ----------------------------------|-----------------------------------|
    ----------------------------------|-----------------------------------|
    ----------------------------------|-----------------------------------|
    ----------------------------------|-----------------------------------|



    --13--13--13--14--16--16--16--14--|--13--13--13--13--13--13--13--13--|
    ----------------------------------|----------------------------------|
    ----------------------------------|----------------------------------|
    ----------------------------------|----------------------------------|
    ----------------------------------|----------------------------------|
    ----------------------------------|----------------------------------|



    --14--14-14---11--11--11--11--11--|--13--13--13----------------------|
    ----------------------------------|------------------------14--14--14--14--14--|
    ----------------------------------|----------------------------------|
    ----------------------------------|----------------------------------|
    ----------------------------------|----------------------------------|
    ----------------------------------|----------------------------------|



    --------11--------9----7--|--6-----||
    --12----------12----------|--------||
    --------------------------|--------||
    --------------------------|--------||
    --------------------------|--------||
    --------------------------|--------||
     

Share This Page