REQ : Kangna (unplugged)

Discussion in 'Hindi Guitar Tabs - Submit or Request' started by Kshitij, Nov 25, 2005.

  1. Kshitij

    Kshitij .::k:s:h:i:t:i:j::.

    Hey dudes... out thr!! cud u tab Kangna (unplugged) by Dr Zues song 4 me wiv the backround music???
    AMazin backound music in this song on acoustic guitar
    PL pl pl .... :help: :help: :help:
     
  2. amirsimsibshako

    amirsimsibshako New Member

    its already posted
    http://www.indianguitartabs.com/showthread.php?t=11506&highlight=kangna

    by the way i also live in bahrain..where do u stay in bahrain?


    -4--------------------------4---------------------------2-------------------------
    -5--------5-----------5----4---------------------------2-------------------------
    -4-----4-----------4-------4--------4-----------4-----2--------2-----------2----
    -6--6-----------6----------4-----4-----------4--------2-----2-----------2-------
    -4-----------4-------------6--6-----------6-----------4--4-----------4----------
    -4--------------------------4-----------4--------------2-----------2-------------


    -4------------4----------
    -4------------5--------5-
    -4--------4--4-----4----
    -4-----4-----6--6-------
    -6--6--------4----------
    -4-----------4----------

    this part continues throughout the song
    once the above has bin played twice, the strumming also kicks in:

    just strum as you hear, putting more emphasis upon the higher three strings.

    -4-------------------------4--------------------------2-------------------------
    -5-------------------------4--------------------------2-------------------------
    -4-------------------------4--------------------------2-------------------------
    -6-------------------------4--------------------------2-------------------------
    -4-------------------------6--------------------------4-------------------------
    -4-------------------------4--------------------------2-------------------------
     
  3. Kshitij

    Kshitij .::k:s:h:i:t:i:j::.

    hey thnx bro... im in budaiya.. u?? n which skool do u go 2???
     
  4. amirsimsibshako

    amirsimsibshako New Member

    i used to study in Pakistan Urdu School. i stay in manama,near Jumha Fateha Mosque
     

Share This Page