REQ -- junaid jamshed chords from my Paki brothers

Discussion in 'Pakistani Guitar Tabs - Submit or Request' started by lalbamboo, Aug 24, 2004.

  1. lalbamboo

    lalbamboo New Member

    Could my dear brothers from across the border give me some chords for junaid jamsheds song............they are soulful and lovely!!
     
  2. badullah

    badullah Dark Inside

    Terey Liye hai ... by Junaid Jamshed (Unplugged version)

    Intro:
    G C
    G C


    G
    Tere Liye Hai
    C G
    Mera Dil Meri Jaaan

    G C
    Hotey Hai Too Hoo Fasley

    G
    Darmian


    G C

    Repeat.. part 1


    G
    Apney Aghaz se
    Bm C
    Aaj taak zindagi teri hi sooch mai
    G
    Gum rahi

    G Bm
    phir bhi janey mujh .. kio yeah Ahsas hai

    C D
    Gaise chahat meri kaam rahi

    G C..

    So on......

    G
    Ayegi Aik Baar


    Khoogai Joo Bahar..
    C G
    mai issi aas hi jeeyoun ga.

    G
    Khud sey wada hai yeh

    Aur irada hai yeh
    C D
    Tu suney na suney khahoun ga hooo

    G C
    Teray liyay hai mera dil,
    G
    Meri jaan



    Bm [x x 0 4 3 2] (D Gb B) : minor triad
    G [3 2 0 0 3 3]
    C [0 3 2 0 1 0]
     
  3. invincible2k

    invincible2k New Member

    Author/Artist: Vital signs
    Title: Aitebaar
    Transcribed by: Shani
    Comments : This tabs is totally my work all suggestions, corrections


    Chords: E(022100), A(002220), B(224442), G#m(466444), C#m(446654)

    E A
    aitebar bhi aa hi jaye gaa

    G#m A G#m
    milo tau sahi rasta koi mil jaye ga

    G#m A B
    chalo to sahee chalo to sahee

    E A E
    aitebar bhi aa hi jaye gaa aa hee jaye gaa


    Solo

    E A
    dhoop mein khara chal raha hoon mein

    E A C#m G#m
    saya do mujhe yeh mera junoon yeh meri jalan hai meri saza

    C#m G#m A B
    meri yeh thakan keh rahi hai kia suno tau sahi suno tau sahi

    E A E
    aitebar bhi aa hi jaye gaa aa hee jaye gaa


    Solo
    E A E
    kia hua agar zindagi zara bhool si gai

    A C#m G#m
    soocho tau zara jungalooon mein bhi raastay tau hain

    C#m G#m A B
    hamein bhi koi mill hi jaye gaa chalo tau sahi chalo tau sahi

    E A
    pyar vyaar bhi ho hi jaye gaa

    G#m A G#m
    milo tau sahi rasta koi mil jaye ga

    G#m A B
    chalo to sahee chalo to sahee

    E A E
    aitebar bhi aa hi jaye gaa aa hee jaye gaa
     
  4. invincible2k

    invincible2k New Member

    Junaid Jamshed - Dil Ki Baat

    Chorus:

    E D A E D
    Dil Ki Baat Kabhi Karo Dil Ki Baat

    E D A E D
    Dil Ki Baat Kabhi Tu Karona Dil Ki Baat

    E D A E D
    Mera Saath Kabhi Tu Do Mera Sath

    E D A E Bm D
    Mera Sath Kabhi Tu Do Na Mera Sath


    Verse 1:

    E D A E
    Mera Koi Pal, Lamha Koi

    E D A E
    Mera Koi Pal, Lamha Koi

    Bm E Bm E
    Tumhare Khayal, Se Juda Raha Nahi

    Bm E Bm E
    Tumhare Khayal, Se Juda Raha Nahi

    A E A
    Kya Huwa Tumhare Saath?

    E A D
    Kaho Na, Kaho Na, Kaho Na


    Chorus:

    E D A E D
    Dil Ki Baat Kabhi Karo Dil Ki Baat

    E D A E D
    Dil Ki Baat Kabhi Tu Karona Dil Ki Baat

    E D A E D
    Mera Saath Kabhi Tu Do Mera Sath

    E D A E Bm D
    Mera Sath Kabhi Tu Do Na Mera Sath


    Verse 2:
    E D A E
    Saie Ki Tarha Saath Raho

    E D A E
    Saie Ki Tarha Saath Raho

    Bm E Bm E
    Kushboo Ki Tarha, Dil Main Utar Jao

    Bm E Bm E
    Kushboo Ki Tarha, Dil Main Utar Jao

    A E A
    Thame Raho Mera Haath

    E A D
    Chalo Na, Chalo Na, Chalo Na

    E D A E D
    Mere Saath, Kabhi Chalo Mere Saath


    Chorus:

    E D A E D
    Dil Ki Baat Kabhi Karo Dil Ki Baat

    E D A E D
    Dil Ki Baat Kabhi Tu Karona Dil Ki Baat

    E D A E D
    Mera Saath Kabhi Tu Do Mera Sath

    E D A E Bm D
    Mera Sath Kabhi Tu Do Na Mera Sath
     
  5. invincible2k

    invincible2k New Member

    "Chehra" by Vital Signs
    Album: Vital Signs
    Poet: (Late) Parveen Shakir

    Standard Tuning

    Verse:
    [Bm]Chehra mera tha [A] nig[Bm]aahein thein uss [A] ki
    [Bm]Khamoshi main bhi [A] woh baa[Bm]tein uss [A] ki
    [D]Meray cheh[A]ray pe ghazal likh[D]tee gaeen
    [Bm]Sher keh[G]tee huween aankh[A]ein uss ki

    [Bm]Aisay mau[A]sam bhi guza[D]ray hum [G] nay
    [Bm]Subhain jab ap[A]ni thein shaa[G]mein uss [F#] ki

    [Bm]Neend iss [A] soch say too[D]ti ak[G]sar
    [Bm]Kis tarah katt[A]een hain raat[G]ain uss [F#] ki
     
  6. invincible2k

    invincible2k New Member

    Jana Jana Chords by Vital Signs

    Song: Jana Jana
    Band: Vital Signs

    Chords used:
    Gm
    |--3---|
    |--3---|
    |--3---|
    |--5---|
    |--5---|
    |--3---|

    F
    |--1---|
    |--1---|
    |--2---|
    |--3---|
    |--3---|
    |--1---|


    C
    |--0---|
    |--1---|
    |--0---|
    |--2---|
    |--3---|
    |------|


    Gm F C F
    Jana Jana, Pariyon jaisa roop dikhana

    Gm F C F
    Jana Jana, Pariyon ki tarah kho nahin jana


    and it goes pretty much like this throughout except for this part..


    F
    Hum ko apna mast kar key tum

    C
    Jana masti ki tarah

    F Gm F
    Urr nahin jaa- na


    so.. there
     
  7. invincible2k

    invincible2k New Member

    "O' Sanama" by Junaid Jamshed

    Standard Tuning

    Intro:
    [Am] [G] [F] [G]

    [Am]O' sanama [G] sanama [F] sanama [G] o' sanama x3
    [G]Ab meri tan[F]hai hai aa[Am]san

    [G]Teri tasweerain teri tehreerain
    [Am]Ghar main meray ph[G]ela huwa [F] hai yehi sam[G]aan

    [Am]Na subh o sh[G]aam be[F]qaraari [G]
    [Am]Na uss kay ba[G]ad ra[F]at bha[G]ri
    [F]Kaisa huwa hai meray har da[G]rd ka [Am] darma

    Teri aankhon main jhankta hoon
    teri honton say poochta hoon
    Inn say chupata nahin apna koi armaan
     
  8. invincible2k

    invincible2k New Member

    "Sahib-e-Dil" by Junaid Jamshed

    Standard Tuning

    A# xx3331

    [C]Sahib[Dm]edil [C] jo mi[A#]la humain
    Woh [C] tha deew[Dm]ana [C] ter[A#]a
    [C]Tujh main ai[Dm]sa k[C]ya hai k[A#]eh
    Huwa hai [C] sab zam[Dm]ana [C] ter[A#]a

    Na so[Dm]orat h[C]ai te[A#]ri ais[C]ee
    Keh [Dm] ho ja[C]ey ko[A#]i pa[C]gal
    Na aa[Dm]nkhain ha[C]in te[A#]ri jhee[C]lain
    Na zul[Dm]fain ha[C]in te[A#]ri baa[C]dal

    [A#]Magar na jaanay kya teri na[Dm]zar main hai
    [C]Keh jo milay wohi teray as[Dm]ar main hai
    Asar main h[C]ai koi to bata de
     
  9. ijlal

    ijlal The B chord

    thanks all...u all did very good job ..all the chords are very nice...
     
  10. Satchboogie

    Satchboogie New Member

    Sanwali Saloni

    Does anyone has the chords for this song with the lyrics....

    Thanks -Ali
     
  11. >-Sui_Generis-<

    >-Sui_Generis-< New Member

    can anyone provide tabs for Junaid Jamshed's,
    1_Dil Dil Pakistan
    2_Na Tu Aayegi
    3_Ankhon Ko Ankhon Ne
     
  12. devil

    devil New Member

    hey also do something for my song's chords too i.e
    yaad kerna by junaid jamshed plzzzzzzzz
     
  13. Orange Guitar

    Orange Guitar IGT's ALLROUNDER

    dont copy paste from ultimateguitar....post ur own....i wnat Jaana by Juni (Album:DIL kee Baat)
     
  14. neo_usafz

    neo_usafz New Member

    any one have chors of US RAH PAR ?
     
  15. FaWaD

    FaWaD New Member

    well anyone hav chords for YEH SHAAM!!!! by Junaid / Vital Signs..
     
  16. faiqgiant

    faiqgiant .: Innocent :.

    SANWALI SALONI for
    Satchboogie

    G (355433)
    D (557775)
    A (577655)
    C (335553)
    Strumming: Beat 16

    INTRO:

    E|-----------------------------------------------------|
    B|-----------------------------------------------------|
    G|-----------------------------------------------------|
    D|---------7--7-7----------7--7-7--------6-7-6-4--|
    A|---(7-9)----------- (7-9)--------------------------|
    E|-----------------------------------------------------|

    E|------------------------------------------------------|
    B|------------------------------------------------------|
    G|------------------------------------------------------|
    D|---4/7-7--7-7----4/7-7--7-7----------------------|
    A|------------------------------------------------------|
    E|------------------------------------------------------|

    E|------------------------------------------------------|
    B|------------------------------------------------------|
    G|-------------6--------------6-----------------4-----|
    D|---(6-7)-7-------(6-7)-7---------(6-7)-7---------|
    A|------------------------------------------------------|
    E|------------------------------------------------------|

    G D G
    Sanvali saloni si mehbooba teri choorian sharing kar k


    E|------------------------------------------------------|
    B|---7----7----7-9-10-9-7---------------------------|
    G|-----6----6------------------------------------------|
    D|------------------------------------------------------|
    A|------------------------------------------------------|
    E|------------------------------------------------------|

    E|------------------------------------------------------|
    B|---7----7----7-9-10-9-7---------------------------|
    G|-----6----6------------------------------------------|
    D|------------------------------------------------------|
    A|------------------------------------------------------|
    E|------------------------------------------------------|

    E|------------------------------------------------------|
    B|---5-2-5-2---5-2------2---------------------------|
    G|--------------------2-4------------------------------|
    D|------------------------------------------------------|
    A|------------------------------------------------------|
    E|------------------------------------------------------|


    E|------------------------------------------------------|
    B|---5-2-5-2---5-2------2-3-------------------------|
    G|--------------------2-4------------------------------|
    D|------------------------------------------------------|
    A|------------------------------------------------------|
    E|------------------------------------------------------|

    C G C D
    Amrika k ya japan k hum to hain deewanay multan k
     
  17. faiqgiant

    faiqgiant .: Innocent :.

    SONGS FOR
    >-Sui_Generis-<


    Na tu aaye gi - Junaid Jamshed
    B -------5-5----------------------------
    G -4-7-7--------------------------------
    na tu aaye gi

    B -----7-5------------------------------
    G -4-7-----7-7--------------------------
    na hie chein aaye ga

    E -----------7-7-7--5-5-----------------
    B -7-7-5-7-8----------------------------
    mere aangun ki haari......

    B -8-7-8-5-5------5-7-5-----------------
    G ----------------------7-7-7-----------
    etc etc

    B -------5-5----------------------------
    G -4-7-7--------------------------------
    na tu aaye gi

    B -----7-5------------------------------
    G -4-7-----7-7--------------------------
    na hie chein aaye ga








    Ankhon Ko Ankhon Ne

    INTRO play it with the voilon effect

    e|------11-slide-12-12------10-10--9-9---7-7------------------------- |

    e|-----9-slide-10-10--9-9-7-7---5------5-------5--7-----7-slide--12--|
    B|----------------------------------------------8--------------------------|

    B|-----12--10-10---8--10--8-7------------------------------------------|
     
  18. faiqgiant

    faiqgiant .: Innocent :.

    YEH SHAAM FOR
    FaWaD



    INTRO
    e-|--0-2-5-4-0-2---|
    B-|-------------------|
    G-|-------------------|
    D-|--0-------0-------|
    D
    Yeah shaam phir Nahi ayegi
    D
    Yeah shaam phir Nahi ayegi
    is shaam ko is saath ko
    Bm A
    aaoo amar karde
    E D
    Hoo aamar kardey
    D
    Yeah shaam phir Nahi ayegi
    is shaam ko is saath ko
    Bm A
    aaoo amar karde
    D
    aamar kardey
    D
    YEah Sham phir nahi aayegi
    D
    Dil ki batey sabhi
    F#m
    dil kahey hum sunai
    A
    hoont khaamoosh hoooon
    Bm
    aaankhai kehti rahey
    D
    Dil ki baatey sabhi
    D
    aankhoo aankhoo mai
    Bm
    baato baato mai
    A Bm
    jeevan basar kardey
    A
    basar ley
    E D
    Hoo amar kar ley
    D
    yeah shaaam phir nahi ayegi
    D
    mai tumharey kaareeeb
    F#m
    tum mere paas hooo
    A
    oor kuch hoo na hooo
    Bm
    bus yeah ahsaas hoo
    D
    tum mere paas hooo
    D
    aankhoo aankhoo mai
    Bm A
    batoo batoo mai jeeevan
    Bm
    safar kardey
    A
    safar karley
    E D
    Hoo o amar karley.
    D
    yeah shaaam phir nahi aayegi
    D
    aik dojey mai gum
    is tarah haam jiye
    haat pe haath ho lamha lamha baney
    is tarah hum jiye
    aankhoo aankhoo
    batoo batoo mai
    aaa sahar kardey
    sahar karley
    amar karley
    Repeat part 1
     
  19. faiqgiant

    faiqgiant .: Innocent :.

    Yaariyan DESE R NOT MY TABS JUST WANTED TO SHARE DEM
    By FAIQ KHAN

    E -2-4-2 (slow)
    Yaariyan

    G -5-4-2-4-4-5-9-7 (play the rest with continuity)
    D ---------------------9
    Jo bhi tor ke chale gate hain

    B ---------------------3
    G ---7-9-7-7-5-4-2
    D -9------------
    Unhein neend kese aati hogi
     
  20. faiqgiant

    faiqgiant .: Innocent :.

    A superb song by J.Jamshed


    Tum kehti ho

    Tum Kehti (E)Ho
    Meray Khat Mujh (C#m)Ko
    Wapas Kar (A)Do
    Wapas Kar (D)Do

    Bheegi Shaa(E)mein
    Khushboo Yaa(C#m)dein
    Saari Baa(A)tein
    Tum Kehti (D)Ho
    Wapas Kar (E)Do

    Kuch Sookhay (E)Phool
    Kitabon (Bm)Mai
    Ek Chehra (A)Hai
    Meray Khwaabon (E)Main

    Kuch Pawway (E)Hain
    Tasweerain (Bm)Hain
    Meray Daaman (A)Main
    Yahee Cheezain (E)Hain

    Jo Tan(E)hai
    Kee Saathi (C#m)Hai
    Saari Yaa(A)dein
    Tum Kehti (D)Ho

    Wapas Kar (E)Do
    Wapas Kar (C#m)Do
    Meray Khat Mujh (A)Ko
    Tum Kehti (D)Ho
    Wapas Kar (E)Do

    Khushiyaan Sa(E)ri
    Woh Gham Sa(Bm)ray
    Waday Qas(A)main
    Mausam Sa(E)ray

    Jo Saath Ba(E)hay
    Woh Sab Aan(Bm)soo
    Beetay Lam(A)hon
    Kai Sab Jug(E)noo

    Jo Tan(E)hai
    Kee Saathi (C#m)Hai
    Saari Yaa(A)dein
    Tum Kehti (D)Ho

    Wapas Kar (E)Do
    Wapas Kar (C#m)Do
    Meray Khat Mujh (A)Ko
    Wapas Kar (D)Do

    Bheegi Shaa(E)mein
    Khushboo Yaa(C#m)dein
    Saari Baa(A)tein
    Tum Kehti (D)Ho

    Wapas Kar (E)Do
    Tum Kehti (C#m)Ho
    Hmhmmhm(A)hmmmmmmmmm
    Tum Kehti (D)Ho
    Wapas Kar (E)Do
     

Share This Page