[req] Jal - Dil Haray Tabs

Discussion in 'Pakistani Guitar Tabs - Submit or Request' started by ahmedthe1, Jan 30, 2007.

  1. ahmedthe1

    ahmedthe1 New Member

    Anyone got tabs for it?the intro and the rest?
    and I also need tabs and chords of Doorie by Atif








    thanx in advance
     
  2. kanhaiya91

    kanhaiya91 New Member

  3. born2tab

    born2tab rhythm guitarist

    Code:
    e-------3-2---5-2------------
    B-----3-----3----------------
    G---0------------------------
    D----------------------------
    A----------------------------
    E-3--------------------------
    
    e-------3-2----7(strum 7)-
    B-----3-----3----------------
    G---0------------------------
    D----------------------------
    A----------------------------
    E-3--------------------------
    
    e-------3-2---5-2------------
    B-----3-----3----------------
    G---0------------------------
    D----------------------------
    A----------------------------
    E-3--------------------------
    
    e-------3-2---5-2------------
    B-----3-----3----------------
    G---0------------------------
    D----------------------------
    A----------------------------
    E-3--------------------------
    
    e-------7-5----7-8-----------
    B-----7------7----------------
    G---0------------------------
    D----------------------------
    A----------------------------
    E-7--------------------------
    
    e-------7-5----7-8-----------
    B-----7------7----------------
    G---0------------------------
    D----------------------------
    A----------------------------
    E-7--------------------------
    
    e-------0-2---3-------------
    B-----3-----3----------------
    G---0------------------------
    D----------------------------
    A----------------------------
    E-3--------------------------
    
    e-------0-2---3-------------
    B-----3-----3----------------
    G---0------------------------
    D----------------------------
    A----------------------------
    E-3--------------------------
    
    e-------3-2---5-3r------------
    B-----3-----3----------------
    G---0------------------------
    D----------------------------
    A----------------------------
    E-3--------------------------
    
    G Major--strum 2 times then mute in this pattern U D U very fast
    Repeat this 3 times and on the third time mute very fast U D U D U D U D U
    
    Repeat all of this one more time and on the time mute till U D U and then strum
    D U
    
    then again ...G Major--strum 2 times then mute in this pattern U D U very fast
    Repeat this 3 times and on the third time mute very fast U D U D U D U D U
    
    then the starting is like this
    G Major strum two times
    C(add9) strum two times
    G Major strum two times
    Dsus4 strum two times
    
    Repeat this two times and on the third time it's like this
    G Major strum two times
    C(add9) strum two times
    G Major ONE TIME
    
    these are not my tabs...these are courtsy J.J.

    I used them to to play.
    Here is the link to my recording
    http://www.fupload.com/confirm_email.php?file_id=4r36cwzs92fgqmxkb08v&confirm_string=jytpvh
     
  4. faiqrock

    faiqrock XaiQ

  5. upneja

    upneja New Member

    gud one man
     
  6. born2tab

    born2tab rhythm guitarist

    dint exactly get u???

    I know search is an option but i had J.J.s tab on ma desktop at that time...
    so just posted it...:annoyed:
    did i commit a crime:think:
     
  7. faiqrock

    faiqrock XaiQ

    oh no no bro :D u took me wrong ... u did the right thing that u have posted but this link wasn't for u :p its for the guy who made the thread, so he can search b4 posting the thread, bcz there are many threads abt jal -_- ...

    cya :)
     
  8. born2tab

    born2tab rhythm guitarist

    oops then..chorry:eek::
     

Share This Page