Req Jagjit Singh's gazals TABS

Discussion in 'Hindi Guitar Tabs - Submit or Request' started by bhootmahal, Jan 22, 2008.

  1. bhootmahal

    bhootmahal New Member

    Hi guys...
    can anyone please post tabs of some of the jagjit singh's ghazals..
    i think he is a great singer who has sung very romantic gazals
    wud really appreciate it

    Thanks :)
     
  2. vivek.gaur0816

    vivek.gaur0816 VivekLoveRock....

    ****************************************
    Song Name : Hosh Walon Ko Khabar Kya
    Movie : Sarfarosh
    Singer : Jagjit Singh Ji
    ****************************************

    E--3-3-3-3-5-3----------
    B--------------5-5--3-1--
    G---------------------------

    Hoshwalon ko, khabar kya


    E--------3-----------------
    B--1-1-5---5-3-3--------
    G--------------------------

    bekhudi kya cheez hai


    E-----------------3-3-----
    B------1-1-5--5-5-----3-
    G--4-4--------------------

    Ishq Kijiye .. phir samajhiye


    E--5-5-7-5-3-3-3---------
    B----------------------------
    G----------------------------

    Jindagi kya Cheez hai ..


    STANZA

    E--7-5-----------------------
    B------8-7-8--10-10-10---
    G-----------------------------

    Unse Nazarein kya mili


    E------------------7-8-7--------
    B--10-8-7^5--5-7-8-------8--
    G---------------------------------

    Roshan fizayein ho gayi ..


    MUSIC In Between

    E----------------------------------------
    B----0-3-1--1-0-------------1-0------
    G--0-------------2------0-2------0----
    D------------------3--3-----------------


    E--7-5-----------------------
    B------8-7-8--10-10-10---
    G-----------------------------

    Unse Nazarein kya mili


    E------------------7-8-7--------
    B--10-8-7^5--5-7-8-------8-
    G--------------------------------

    Roshan fizayein ho gayi ..


    E--------------------------------
    B--8-8-8-10-8-7-5-5-5------
    G----------------------5--------

    Aaj jana pyar ki ...


    E--------------------------------
    B------5-8--5------------------
    G--5-5--------7-7-------------

    jadugari kya cheez hai


    REPEAT ...


    Chords progression goes like
    G--Em--C--G
    G--Em--D--G
     
  3. folkpoet80

    folkpoet80 New Member

    My Submissions

    Here are the ones that I have figured out.

    1. Kaun ayega yahaan (Ghazal by Kaif Bhopali, Singer: JS)


    Dm........F...............A#......C........Dm
    Kaun aayega yahaan koi na aya hoga
    ............F.............C...........A#..C....Dm
    Mera darwaza hawaon ne hilaya hoga

    Dm......A#..............A................A#.....C......Dm
    Dil e nadaan na dhadak, ai dil e nadaan na dhadak
    Dm.......F...........C.............A#.....Dm
    Koi khat leke padosi ke ghar aya hoga

    Rest stanzas same. This Ghazal sounds best when fingerpicked with occasional strumming. Correct note must be played where noted.

    2. Baat nikelgi to phir..
    http://www.indianguitartabs.com/showthread.php?t=28423

    3. Gumsum ye jahaan hai (Featured on Life Story Concert, originally sung by JS in 70s)

    Dm..................A........
    Gum sum ye jahaan hai
    Dm...................A
    Hamdum tu kahaan hai

    Dm..................A........
    Gum sum ye jahaan hai
    A#...................A
    Hamdum tu kahaan hai


    C..................A#
    Gamzadaa ho gayi
    A..................Dm
    Zindagi aa bhi jaa

    Gumsum ye jahaan hai...

    Verse:

    Dm..............................F...
    Raat baithi hai baahen pasaare
    ......C...........A............Dm...
    Siskiyaan le rahe hain sitaare
    Dm.F.......C..........A.......Dm.
    Koi toota hua dil pukaare

    Gumsum ye jahaan hai...

    4. Ghazal: Zindagi se badi saza
    Original Artist: Jagjit Singh
    Chords: Gautam Dhar

    I figured these ones out when I was starting out on Guitar, but sound ok to me.


    Intro:
    Dm..........C............Dm.........F..........D

    Dm........F........D..............
    Zindagi se badi sazaa hi nahi
    ..............G..........C............Dm
    Aur kyaa jurm hai pataa hii nahi x2

    Verse 1:

    Dm.........C..................A..................D m
    Kitane hisson men bant gayaa hoon mai
    Dm...........G.................C.................D m
    Kitane hisson men bant gayaa hoon mai
    Dm.......F......................D............
    Mere hisse men kuchh bachaa hi nahi
    ..........G......................C..........Dm
    Mere hisse men kuchh bachaa hi nahi

    Verse 2
    Dm..........C.......................A........Dm
    Jad do chaandi men chaahe sone me
    Dm.........G........................C.......Dm
    Jad do chaandi men chaahe sone me
    Dm.....F...........D............
    Aaina jhooT bolataa hi nahi
    .........G...........C.........Dm
    Aaina jhooT bolataa hi nahi

    Zindagi se...
     
  4. Sohel A

    Sohel A New Member

    Hi guys and gal, I am new here , can any be kind enough to let me have the entire lyrics and chords of Dil ka Kajana by Jagjeet sing the gr8.
     

Share This Page