[REQ] Jaadu Teri Nazar

Discussion in 'Hindi Guitar Tabs - Submit or Request' started by Liquid, Dec 22, 2004.

  1. Liquid

    Liquid New Member

    i have the tabs and all......but id really like the intro......it sounds really nice and harmonious.....doesnt seem that hard....but then again....i have no clue how to tab... :eek::
    help is appreciated....

    also....chords and strumming would help as well
     
  2. KannadaBoi

    KannadaBoi Kannadiga

    there are tons of threads for this song. Search for it.

    :rockon:
     
  3. its4ashish

    its4ashish New Member

    Jadoo Teri Nazar Tab

    E|----------------------------------------------------------------||
    B|----------------------------------------------------------------||
    G|----0---7-----5--7--5--3--2----------5--3--5--3--2--0---||
    D|---------------------------------3-----------------------------||
    A|----------------------------------------------------------------||
    E|----------------------------------------------------------------||
    Jadoo teri nazar.......khusbhu...tera badan

    E|----------------------------------------------------------------||
    B|-----------------------------------------------------------------||
    G|--------3---2--------2--0-----3-2---2-0--0-0--8---10-8-7--||
    D|---0-------------0----------0-----0-----------------------------||
    A|------------------------------------------------------------------||
    E|------------------------------------------------------------------||
    tu haan kar...yaa naa kar.

    E|---------------------------------------------------------------||
    B|---------------------------------------------------------------||
    G|---0-0--8---10-8-7----------------------------------------||
    D|---------------------------------------------------------------||
    A|---------------------------------------------------------------||
    E|---------------------------------------------------------------||
    tu hai..meri kiran...

    now here is the rest of the song...
    in between tune

    E|---------------------------------------------------------------||
    B|---------------------------------------------------------------||
    G|----7-7-5-7-5-5-3-2-5-----0-0-0-0-2-3-5-5------------||
    D|---------------------------------------------------------------||
    A|---------------------------------------------------------------||
    E|---------------------------------------------------------------||

    E|---------------------------------------------------------------||
    B|---------------------------------------------------------------||
    G|----10-10-8-10-8-8-7-5-8---7-5-3-3-5-7-7-----------||
    D|--------------------------------------------------------------||
    A|--------------------------------------------------------------||
    E|--------------------------------------------------------------||

    .........song starts....

    E|-------------------------------------------------------------||
    B|-------------------------------------------------------------||
    G|----3-5-3--------------------------------------------------||
    D|------------3-5-3-3-5-3-1-5---------------------------||
    A|-------------------------------------------------------------||
    E|-------------------------------------------------------------||
    mere khwabo ki tasavir hai tu.........
    E|-------------------------------------------------------------||
    B|-------------------------------------------------------------||
    G|---------8-10-8-7-7-5-3-5-3-3 ---------||
    D|---5-5-------------------------------------------||
    A|------------------------------------------------------------||
    E|-------------------------------------------------------------||
    bekhar meri takadir hai tu...

    E|------------------------------------------------------------||
    B|------------------------------------------------------------||
    G|---------8-10-8-7-5-7-5-3-5-7---------------------||
    D|------------------------------------------------------------||
    A|------------------------------------------------------------||
    E|------------------------------------------------------------||
    tu kisi...aur ki ho na jana...

    E|------------------------------------------------------------||
    B|------------------------------------------------------------||
    G|---------7-8-7-5----5-7-5-3-2-0-2-0 -----------------||
    D|------------------------------------------------------------||
    A|------------------------------------------------------------||
    E|------------------------------------------------------------||
    kuchh bhi kar...jaunga me diwana.....

    and then repeat from first.....
    :beer:
     
  4. Liquid

    Liquid New Member

    i know....i did search for it.....but i didnt find any with the correct intro....
     
  5. its4ashish

    its4ashish New Member

    Keep trying
     
  6. Liquid

    Liquid New Member

    no one starts off with the intro....they just start off.....which is a little too plain...i think the best part of this song is the beginning...

    but thanks anyways
     
  7. Subhro

    Subhro Argentina lost :"(

    Hi Liquid..

    This is the intro u askd 4..
    hav fun.. if u need nymore of this kind .. wil try 2 help..

    Intro of Jaadu teri nazar

    E |---------------------------------------|
    B |---------------------------------------|
    G |------6-6-6-6-6---4-6-4(h)6(p)4-------|
    D |---4-----------------------------7-6---|
    A |---------------------------------------|
    E |---------------------------------------|

    E |------------------------------------|
    B |------------------------------------|
    G |-----4-4-4-4---2-4-2(h)4(p)2-1-----|
    D |---2----------------------------4---|
    A |------------------------------------|
    E |------------------------------------|

    E |--------------------------------------------|
    B |---------------s----------------------------|
    G |------6-6-6-6-6/9-9-9--6-6-----------------|
    D |---4------------------------7-7--6(h)7(v)---| <- i dont know maybe my notation 6(h)7(v) isnt perfect.. (in terms
    A |--------------------------------------------| of representation).. once u play it u'll know how 2 do it..
    E |--------------------------------------------|

    E |-----------------------------------------|
    B |-----------------------------------------|
    G |-----4-4-4-4-4-4---2-4-2(h)4(p)2-1-----|
    D |---2-2------------------------------4---|
    A |----------------------------------------|
    E |----------------------------------------|

    Let me know if it sounds ok..
    if u got ny corrections post it..
    Bye tk cre..
    Chill :beer: Subhro
     
  8. its4ashish

    its4ashish New Member

    what does "(h)" and "(p)" means
     
  9. Subhro

    Subhro Argentina lost :&quot;(

    h signifies a 'hammer on'
    p ..............'pull off'

    search the forum for learning 2 read tabs... i think u wud find it there..
    also check out this link.. it will clear ur doubts.. has audio files attached which wud help u figure out what the sound wud be like in case of a hammer on & pull off..

    http://www.guitarnoise.com/article.php?id=382
     
  10. Liquid

    Liquid New Member

    thank u very very very much....i really love the intro and i think uve done it perfectly...
    u rock!
     
  11. Liquid

    Liquid New Member

    oh that reminds me....does anyone know which chord they play like during the middle of the song....after the first verse starts again..

    tu ha kar....ya na kar.....the second time around...like after that...

    tu ha kar...."chord".....ya na kar "chord"

    i think the strumming is d dud ...can anyone confirm this?
     
  12. Subhro

    Subhro Argentina lost :&quot;(

    thankz mate

    Thankz liquid :)

    the chords which u were asking 4 i think they r like this but not sure.. chk it out if sounds ok 2 u..

    Tu ha kar _ _ _ _
    Chord : F#m....F#m F#m E
    Strum : d........d.....d.....d

    Ya na kar _ _ _ _
    Chord : E.....E..E..F#m
    Strum : d.....d..d..d

    Strummin i do it like d ddd.. howevr urs. d dud doesnt sad bad 2 ..

    bye tk cre
    Chill :beer: Subhro
     
  13. its4ashish

    its4ashish New Member

    How can we on the hammer
     
  14. Subhro

    Subhro Argentina lost :&quot;(

    :) tough qs.. cant be answered by an amateur like me..

    howevr if u wanna know whats a h = hammer on signifies.. i wud advice u 2 chk out the site i mentioned in my prev post.. :)
     

Share This Page