req: intro tabs of song 'o o jaane jaana'

Discussion in 'Hindi Guitar Tabs - Submit or Request' started by monika9, Dec 15, 2009.

  1. monika9

    monika9 New Member

    hii all
    plz post d tabs for intro of dis song from d muvi- pyaar kiya to darna kya
    thanx
     
  2. Fenil_Dedhia

    Fenil_Dedhia New Member

    yes even i want the tabs for "o o jaane jaana " ....i'm a beginner ...need the tabs in C major scale ...i really dont knw what is C major scale lol ...i eman i want the tabs till 1,2,3,4 frets only only if possible
     
  3. shine5

    shine5 New Member

    These are the tabs for o o jaane jaana.....
    - suraj


    |-----------3---3---------------------------------------------------|
    |-------------6---4-----6-6--3---3---------------------------------|
    |--3s5-3-3---------------------5----3s5--3-------------------------|
    |-------------------------------------------------------------------|
    |-------------------------------------------------------------------|
    |-------------------------------------------------------------------|

    |----------------------------------------3-----3--------------------|
    |--------3-3--3-3--4-3----------------------6----4-6--3-4----------|
    |---3-3-----------------3------5--5-5----------------------3-------|
    |-------------------------------------------------------------------|
    |-------------------------------------------------------------------|
    |-------------------------------------------------------------------|

    hope its correct...njoy.....
    Keep rocking \m/r........................
     
  4. Fenil_Dedhia

    Fenil_Dedhia New Member

    Song : o o jaanay jaana
    Film : pyar kiya tou darna kya
    Tabbed by : SongNotes


    The Guitar part..
    E|--------------------------------------------------|
    B|----------5--3-5-1------------3-3---0----0--------|
    G|--2--2-2------------------------------2----2------|
    D|-----------------------------------------------0--|
    a a a e d e c, d d b a b a g

    E|--------------------------------------------------|
    B|------0-0-0--0-------------5---3-5--1-3--0-1------|
    G|-0--0--------------2--2-2---------------------2---|
    D|--------------------------------------------------|
    g g b b b b, a a a e d e c d b c a
    ================================================== ===


    Ok guys this is how i play the awesome song:
    Am
    O O Jaane Jaana
    G
    Dhoondhe Tujhe Deewaana
    Em
    Sapnon Mein Roz Aaye
    F
    Aa Zindagi mein
    G
    Aana
    Am
    Sanam

    Am
    Mera Khwab
    Dm
    Mere
    G
    Khayalon Ki
    Am
    Rani
    F
    Kisi Din
    Dm
    Banegi
    G
    Hamari
    Am
    Kahani
    D
    Ae Meri Bekhudi
    C
    Yeh Kasam Maine Li
    G
    Pyaar mein Ek Din meri
    Em
    Jaan Tujhe Hai Paana

    Rest the same as above...Enjoy






    E|--------------------------------------------------|
    B|--1--1-0----0-------------3-3----0-----0----------|
    G|---------2----1--------------------2-----2--0-----|
    D|--------------------------------------------------|
    c c b a b c d d b a b a g
    o o jaane jaana dhoonde tujhe deewaana

    E|--------------------------------------------------|
    B|----0-0-0-0--0-0-5--------5-5-0-1-1-0-------------|
    G|-0------------------------------------2-----------|
    D|--------------------------------------------------|
    g b b b b b b e e e b c c b a
    sapno mein roz aaye aa jindagi mein aana

    ================================================== ===

    E|----0---------------------------------------------|
    B|------1-----3--0-------------0--1-----------------|
    G|-2--------2---------0-0---2--------2--------------|
    D|--------------------------------------------------|
    a e c a d b g g a b c a
    Mera khwab mere khayalon ki rani
    g a b b a

    E|----------0---------------------------------------|
    B|------1-----3-3------------0--1-------------------|
    G|-2--2--------------0-0--2--------2----------------|
    D|--------------------------------------------------|
    a a c e d d g g a b c a
    Kisi din banegi hamari kahani

    E|-0--0-2---2--0------------0---0-------------------|
    B|---------------3----3---3--------3--1-------------|
    G|--------------------------------------------------|
    D|--------------------------------------------------|
    e e f# f# e d d d e e d c
    Ai mere bekhudi yeh kasam maine lee

    E|--------------------------0-------0-----0-----------|
    B|-0-----0----1----0---1-3--------3-----3---3--1--0---|
    G|----2---------2-----------------------------------2-|
    D|----------------------------------------------------|
    b a b c a b c d e d e d e d c b a
    pyaar mein ek din meri jaan tujhe hai paana

    o o jaane jaana dhoonde tujhe deewaana
     
  5. dashy_kull

    dashy_kull New Member

    o o jane jana (salman khan)

    hi monika... just try these chords 4 ur requested song...
    o o jane jana...

    Am, G, Em, D.

    n plz do rply...
     
  6. juliustalent

    juliustalent New Member

Share This Page