Req:Intro for Dil Harey

Discussion in 'Pakistani Guitar Tabs - Submit or Request' started by moadhia, Oct 15, 2004.

  1. moadhia

    moadhia New Member

    Can ne1 tab out the intro for Dil Harey ... its just so amazingg....dont see it ne where here .
     
  2. A4tech

    A4tech New Member

    yaar i dont know abhot the intro tabs but yes the intro music is somthing like:
    =[220033] , [032033] ,[022033] , [000033]
     
  3. Muz guitarist

    Muz guitarist New Member

    " INTRO "

    e|-------3---2-----5\3----------3p2---2------7------------|
    b|-----3-------3-------3------3-----3---3----7-------------|Guitar 1
    g|---0-----0-----0----------0-------------0--0--------------|
    d|-------------------------------------------0----------------|
    a|-------------------------------------------------------------|
    e|-3---------------------3-----------------------------------|

    e|-------------------------15--15------------------------|Guitar 2
    b|-----------------------15--15--------------------------|



    e|-----3---2-----5\3-------3\2---2-----3-3---------------|
    b|-----------3-------3---------3---3-----------------------|Guitar 1
    g|---0---0-----0---------0-----------0--------------------|
    d|-----------------------------------------------------------|
    a|-3-------------------3------------------------------------|
    e|-----------------------------------------------------------|

    e|--15--15---------------15--15-------17-17--------------|Guitar 2
    b|15--15---------------15--15-------------------------------|



    e|-------3\2---2-----5\3----------3\2---2-------7--------|
    b|-----3-----3---3-------3------3-----3---3-----7--------|Guitar 1
    g|---0-------------0----------0-------------0---0----------|
    d|----------------------------------------------0-----------|
    a|----------------------------------------------------------|
    e|-3------------------------3------------------------------|

    e|------7--------7h8-7p5----------7---------7------------|Guiatr 2
    b|-------------------------------------------------------|



    e|-------3\2---2-----5\3----------3\2---2-----3/7--------|
    b|-----------3---3-------3------------3---3----------------|Guiatr 1
    g|---0-------------0----------0-------------0--------------|
    d|-----------------------------------------------------------|
    a|-3------------------------3-------------------------------|
    e|-----------------------------------------------------------|

    e|--------7-------7h8-7p5----------7-10--7---------------|Guitar 2
    b|-------------------------------------10----------------|



    e|-----7---5-----5h7-7-----7/8---5-5-7/8---5-------------|
    b|---7---7---7-----------7-----7---------7---7\3-----------|
    g|--------------------------------------------------------------|
    d|--------------------------------------------------------------|
    a|-7-----------7-------7--------------------------------------|
    e|--------------------------------------------------------------|


    e|-----0---2---3-2------------3\2---2-----3------3-------|
    b|---3---3---3-----3---3----------3---3------3---3-------|
    g|--------------------------0-----------0--------0-----------|
    d|-----------------------------------------------0------------|
    a|-3-----------------3----3----------------------2----------|
    e|-----------------------------------------------3------------|

    "CHORDS"

    Intro Play G C D Chords then

    Play G couple of times with muted G chord


    G C
    Ankhoon say jub bhi ho teri aankhein juda

    G C D
    mun say jub bhi ho tera man khafa

    Bm D C
    tau ji pukare, pukare tujhe

    Bm C G
    man ghabraye a a a bulaye tujhe

    Chorus:

    G D C
    k dil harey pukare tujheeey

    G C D
    mun ja re manale mujhey

    G D C
    sunta re lagale galay

    G Bm D G
    koh ja re tu gaa lay sub re


    G C
    tere bina zindagi laagey saza

    G C D
    tera saath ho yeh saza laagay jaza

    Bm D C
    tau barte jaye tau rastey saare

    Bm C G
    duniya peechay tau hum hai aagay

    G D C
    k dil harey pukare tujheeey

    G C D
    mun ja re manale mujhey

    G D C
    sunta re lagale galay

    G Bm D G
    koh ja re tu gaa lay sub re

    "NOW COMES THE SOLO"

    e|-------------------------------------------------------|
    b|-------------------------------------------------------|
    g|-7-7-5-4---4-7-7-5-4-5p4-4-4-4-5p4-4-4-4-5-4-5-4-4----4|
    d|---------7-----------------------------------------7-7-|
    a|-------------------------------------------------------|
    e|-------------------------------------------------------|


    e|-------------------------------------------5/7-8-7-5-7-|
    b|---------------------------------------8-7-------------|
    g|---------4-----4-----7-5-4------4----------------------|
    d|-7-5-5h7---7-7---7-5-------7-7-----7-5-----------------|
    a|-------------------------------------------------------|
    e|-------------------------------------------------------|


    e|-8-8/7-7-7-7\5-5-5-5\3-3-3-10-10-10\8-8-8\7-7-7\5-5-5--|
    b|-------------------------------------------------------|
    g|-------------------------------------------------------|
    d|-------------------------------------------------------|
    a|-------------------------------------------------------|
    e|-------------------------------------------------------|


    e|-8-7-5-------------------------------------5-7-8-7-----|
    b|-------7-5h7-5-5\3-3\1-3---------------5-7---------8-7-|
    g|---------------------------5-4-5p4-5-4-----------------|
    d|-------------------------------------------------------|
    a|-------------------------------------------------------|
    e|-------------------------------------------------------|


    e|----------------------------------------------12-10-8-7|
    b|-5-----------------------------------------------------|
    g|----5-4-4h5p4-------------------------5-----7----------|
    d|--------------5-7-5--------------5--7---7-5------------|
    a|--------------------7-5--7-5-5h7-----------------------|
    e|-------------------------------------------------------|


    e|-5-3---------------------------------------------------|
    b|-------------------------------------------------------|
    g|-------------------------------------------------------|
    d|-------------------------------------------------------|
    a|-------------------------------------------------------|
    e|-------------------------------------------------------|

    [SNIP]
     
  4. moadhia

    moadhia New Member

    strumming

    hey ne1 knows the strumming for this song.. its to fast to comprehend.. thankss
     
  5. moadhia

    moadhia New Member

    strumming plzz

    some pointers with strumming plzzz..
     

Share This Page