req: instrumental of shehzad roy

Discussion in 'Pakistani Guitar Tabs - Submit or Request' started by me_ok101, Feb 12, 2005.

  1. me_ok101

    me_ok101 New Member

    hello to all???i hope u ppl have heard the shehzad roys' old album named "Rab Janey"..yaar there are two instrumentals...but the instrumental number 2 is out class...and that is played on guitar...so can any body give me the chords/tabs of that instrumental...i"ll be very thankfull to u...
    waiting...
     
  2. Subhro

    Subhro Argentina lost :"(

    ny links 2 tht song ?? lemme see if its my cup of tea...
     
  3. shak

    shak Harrr!

    ^ name of the 2nd instrumental plz???? ... btw if it is "roshnee ka yaqeen" ...just play around the major scales... you'll get it within 5 minutes i promise!!... its so lame
     
  4. skaw

    skaw snooze

    Roshani ka yaqeen

    Transcribed by: Shani
    Source: [SNIP]

    (00:36)
    e------------------------------
    B----3--5-6-5-3-5-2-3-5-5-3-3--
    G-2----------------------------
    D------------------------------
    A------------------------------
    E------------------------------

    (00:43)
    e---------------------------------
    B----3--5-6-5-3-5-3h5p3--2-3-5-5-3
    G-2-------------------------------
    D---------------------------------
    A---------------------------------
    E---------------------------------

    (00:49)
    e------------5---3-----3------------------------
    B----3-5-6----------5-----6--3--2h3p2-----2-3-5-
    G-3------------------------------------4--------
    D-----------------------------------------------
    A-----------------------------------------------
    E-----------------------------------------------

    (00:56)
    e---------------------------------
    B----3--5-6-5-3-5-3h5p3--2-3-5-5-3
    G-2-------------------------------
    D---------------------------------
    A---------------------------------
    E---------------------------------

    (1:02)
    e---------------------------------
    B---------3-5-6-5-3-5--2-3-5-5-3-3
    G--3h5p2--------------------------
    D---------------------------------
    A---------------------------------
    E---------------------------------

    (1:09)
    e---------------------------------------------------
    B--10v-6v--5^-5^--3v---3-5-6-5-6-8b--6-5-6--5v------
    G-----------------------------------------------3-2-
    D---------------------------------------------------
    A---------------------------------------------------
    E---------------------------------------------------

    (1:17)
    e----------------------------5--3-----------6-
    B-----------5--3-------2--5--------6-5-2-5----
    G-----2--5----------3-------------------------
    D--3------------------------------------------
    A---------------------------------------------
    E---------------------------------------------

    (1:21)
    e-5-3-5-3-----3-------------------
    B----------6-----6--5-6-5-3-3-----
    G---------------------------------
    D---------------------------------
    A---------------------------------
    E---------------------------------

    (1:25) its Legato!
    e-------5-6-8--6-5----------------
    B-5-6-8-------------8-6-5-3-2-----
    G---------------------------------
    D---------------------------------
    A---------------------------------
    E---------------------------------

    (1:29)
    e------------
    B--2-3-5-5-3-
    G------------
    D------------
    A------------
    E------------

    (1:35)
    e---------------------------------
    B----3--5-6-5-3-5-3h5p3--2-3-5-5-3
    G-2-------------------------------
    D---------------------------------
    A---------------------------------
    E---------------------------------

    (1:42)
    e------------5---3-----3------------------------
    B----3-5-6----------5-----6--3--2h3p2-----2-3-5-
    G-3------------------------------------4--------
    D-----------------------------------------------
    A-----------------------------------------------
    E-----------------------------------------------

    (1:48)
    e---------------------------------
    B----3--5-6-5-3-5-3h5p3--2-3-5-5-3
    G-2-------------------------------
    D---------------------------------
    A---------------------------------
    E---------------------------------

    (1:55)
    e------------------------------
    B----3--5-6-5-3-5-2-3-5-5-3-3--
    G-2----------------------------
    D------------------------------
    A------------------------------
    E------------------------------

    (2:01) Repeat 2 times
    e------------------------------------------
    B----3-5-3-5-3-5-3-5-6-------3-5-3-5-3-5-3-
    G-3----------------------3-----------------
    D------------------------------------------
    A------------------------------------------
    E------------------------------------------

    (2:10)
    e----------------------------5--3-----------6-
    B-----------5--3-------2--5--------6-5-2-5----
    G-----2--5----------3-------------------------
    D--3------------------------------------------
    A---------------------------------------------
    E---------------------------------------------

    e-5-3-5-3-----3-------------------
    B----------6-----6--5-6-5-3-3-----
    G---------------------------------
    D---------------------------------
    A---------------------------------
    E---------------------------------

    its Legato!
    e-------5-6-8--6-5----------------
    B-5-6-8-------------8-6-5-3-2-----
    G---------------------------------
    D---------------------------------
    A---------------------------------
    E---------------------------------

    (2:22)
    e------------
    B--2-3-5-5-3-
    G------------
    D------------
    A------------
    E------------

    (2:28)
    e---------------------------------
    B---------------------------------
    G-----5-2-------------------------
    D--3-------3--2-0--2v-------------
    A----------------------4--5-------
    E---------------------------------

    Missing fast Lick

    (2:52)
    e---------------------------------------------------------
    B--18v-17-15-18v--17h18-17-15-17--14-15-17-15h17-15-13h15-
    G---------------------------------------------------------
    D---------------------------------------------------------
    A---------------------------------------------------------
    E---------------------------------------------------------

    (3:00)
    e----13------------------------------------------------------------
    B-15----15-13------------------------------------------------------
    G--------------14-13-12------12------12--10v-12h14-12-10-12-10v----
    D------------------------15------15--------------------------------
    A------------------------------------------------------------------
    E------------------------------------------------------------------

    (3:04)
    e---------------------------------------5----------3-----------
    B----5-6-3-s-15-----6-8-6-6h8v---8-5-8-----6-3-6-----5---------
    G-2--------------2---------------------------------------------
    D--------------------------------------------------------------
    A--------------------------------------------------------------
    E--------------------------------------------------------------

    e-------6-5-3-------9-10-12-12-13--8-------------
    B-3h5-2-------6-5---------------------10-8-6-8-6-
    G------------------------------------------------
    D------------------------------------------------
    A------------------------------------------------
    E------------------------------------------------

    (3:26)
    e----10-10-8----8--------------------------10----
    B-10---------11---8h10-6-5---2-3-5-5-3-3---------
    G------------------------------------------------
    D------------------------------------------------
    A------------------------------------------------
    E------------------------------------------------

    Repeat main riff with some filling.......:)
     
  5. skaw

    skaw snooze

    the instrumental Jan Gayo (the only instrumental i saw in the "rab janey" album) that song is completely played on keyboard / piano .. and the other instrumental .. i posted it , not my work ...
     
  6. nadish

    nadish Active Member

    Hey Skaw! Can u tell me from where I can Download this song??????
     
  7. skaw

    skaw snooze

    Proper Guidance

    go on this website and follow the pictures ... notice the scroll bars too ... (if u dont get sumthing then ... :mad: )

    this is for the instrumental .. Jan Gayo
     

    Attached Files:

    • 1.gif
      1.gif
      File size:
      116.8 KB
      Views:
      28
    • 2.gif
      2.gif
      File size:
      112.6 KB
      Views:
      7
    • 3.gif
      3.gif
      File size:
      107.5 KB
      Views:
      7
    • 4.gif
      4.gif
      File size:
      81.3 KB
      Views:
      5
  8. skaw

    skaw snooze

    this is for the instrumental .. Roshani ka Yaqeen (carried on from the last post)
     

    Attached Files:

    • 5.gif
      5.gif
      File size:
      78.2 KB
      Views:
      10
    • 6.gif
      6.gif
      File size:
      118.2 KB
      Views:
      5
  9. me_ok101

    me_ok101 New Member

    hello bro...sorry for late reply...actually i was out of city thats why couldn't check the thread..anyway man u have done it.thanx for the post....sorry i didn;t know the name of that instrumental...but u got it..and thanx again...U R THE MAN...rock on bro...thx again....bye
     
  10. just_atif

    just_atif New Member

    hi to all m new user here .. well i also like this intrumental theme of shehzad roy 'Roshni Ka Yakeen' if any one want this song to listen go download from here... http://www.ahsunt.net i also want chordds of this songs so plz do post us thanx
     
  11. DRBILLA

    DRBILLA New Member

    nice work man just roxxxxxxxxxx
     

Share This Page