REQ: Human Nature - Wishes and Telling everybody

Discussion in 'English Guitar Tabs - Submit or Request' started by JimmyBhai, Oct 15, 2004.

  1. JimmyBhai

    JimmyBhai New Member

    Anyone who has the "chords" for this song, please share. yeah, I know
    they'r not that popular but I need the chords...

    caio
    -Jimmy
     
  2. hehaa

    hehaa New Member

    ------2---2---2-----0---|-----0----0-----0----0-----2------2--
    ------4---5---4-----0---|-----0----0-----0----0-----4------4--
    ------4---4---4-----2---|-----2----2-----2----2-----4------4--
    ------4---4---4-----2---|-----2----2-----2----2-----4------4--
    ------2---2---2-----0---|-----0----0-----0----0-----2------2--
    ------------------------ |------------------------------------

    ------2---2---2-----0---|----0----0-------------------------
    ------4---5---4-----0---|-----0----0------------------------
    ------4---4---4-----2---|-----2----2-----7----7----6------4-
    ------4---4---4-----2---|-----2----2-----7----7----6------4-
    ------2---2---2-----0---|-----0----0-----5----5----4------2-
    ----------------------- -|------------------------------------

    intro vocals:

    (B)Tellin' (A)everybody what your (G#m) doin' to me.
    (B)Tellin' (A)everybody what your (G#m) doin'.

    verse:

    (B)Ain't no doubt about (A)it, (G#m)girl you drive me (A)wild.
    (B)Seems your wastin' over(A), (G#m)punishment befits (A)the crime.
    (B)Can't stop thinkin' about (A)it, (G#m)the things you've done to (A)me .
    (B)Baby you know you got (A)it, you (G#m)bringing him right (A)to his knees.

    pre chorus:

    I've never (E)been an angel, but you(F#m) could show me how.(G#m)
    I (A)wanna be your baby, nu nu nu nu now.

    chorus:
    same chords as intro

    So I'm tellin' everybody, tellin' everybody what we did last night.
    Tellin' everybody, never had a girl that felt so right.
    Tellin' everybody, tellin' everybody what we did last night.
    Tellin' everybody, you're the reason why I had a good time.

    intro vocals
    verse:

    Age defies your body, looks to follow mine.
    Girl you take me higher, lady your perfectafine.
    So don't stop thinkin' about it, and do not stop for me.
    I'II keep makin' it harder, I'II keep it up won't bother me.

    pre chorus
    chorus
     
  3. hehaa

    hehaa New Member

    Ha! dude, sorry yaar i have only heard this songs, not the other so, i cant tab it as well. well keep trying this one coz its a bit diccicult. but perfection makes it tasty :D
     

Share This Page