Req/help tabbing Junoon - neend aati nahin.

Discussion in 'Pakistani Guitar Tabs - Submit or Request' started by Quadrophenia, Jun 21, 2005.

  1. Quadrophenia

    Quadrophenia New Member

    hey guys,...can someone help me tab this song?
    :cool:
     
  2. pure_angel

    pure_angel New Member

    E-5-5-5-7-5---------------------------------
    G-----------7-------------------------------
    D-------------------------------------------
    A-------------------------------------------
    E-------------------------------------------
    Neend Aati Nahin

    E-------------------------------------------
    G--8-8-8-10-12-12---------------------------
    D-------------------------------------------
    A-------------------------------------------
    E-------------------------------------------
    Sari SAri raat

    E--10-9-------------------------------------
    G------10-12-10-10----10-10-10-12-10-10-----
    D-------------------------------------------
    A-------------------------------------------
    E-------------------------------------------
    Koi Tuj Se Kahe Mere Dil ki Baat

    E-5-5-5-7-5---------------------------------
    G-----------7-------------------------------
    D-------------------------------------------
    A-------------------------------------------
    E-------------------------------------------
    aik tu jo nahin

    E-------------------------------------------
    G--8-8-8-10-12-12---------------------------
    D-------------------------------------------
    A-------------------------------------------
    E-------------------------------------------
    ajj mere sath

    E--10-9-------------------------------------
    G------10-12-10-10----10-10-10-12-10-10-----
    D-------------------------------------------
    A-------------------------------------------
    E-------------------------------------------
    muj ko veeran lage sari kaenaat
     
  3. Quadrophenia

    Quadrophenia New Member

    uh..very good.. i was hoping with chords and solo
    not the melody.
     
  4. pure_angel

    pure_angel New Member

    man no one can satisfy you in anything................
     
  5. Quadrophenia

    Quadrophenia New Member

    yeah ...i'm like that!! i like getting things right.
     
  6. faiqgiant

    faiqgiant .: Innocent :.

    i guess i have dem gimme some time
     
  7. faiqgiant

    faiqgiant .: Innocent :.

    Neend aati nahin-Junnon

    G(355433)
    F(133211)
    C(032010)

    (G)Neind Aati Nahein,
    (F)Sari Sari Raat
    (C)Koi Tuj Se Kahay,
    (G)Mere Dil Ki Baat
    (C)Aek Tu Jo Nahein,
    (F)Aaj Mere Saat
    (C)Mujh Ko Veran Lage,
    (G)Saari Kaynat
    (C)Tere Or (F)Mere,
    (G)Rastey Hon Kabhi Na (F)Juda
    (C)Na Juda
    (C)Kia, Jane (F)Koi Zinda Hai (G)Kaise Meri (C)Jan,
    (C)Ye Zinda(F)gi To Ho Ra(G)hi Hai Vee(C)ran
    (F)Tere Bin Hai Jan Aise Badan (G)Mein
    (F)Jaise Tanha Ho Panchi Chaman (G)Mein
    (Repeat Chorus)
    (C)Mein To Yehi (F)Chahon,
    (G)Dooriyan Na Rahey Dooriyan,
    (C)Dooriyan
    (C)Wo, Aanso Bha(F)ri Aankho Me (G)Ghoome
    Din (C)Raat, Tu Bari(F)shon Me Bheeg(G)ta Tha Mere S(C)aath
    (F)Aanganon Me Jo Saaye Jawan (G)Thae
    (F)Dhoop Me Woh Pighalte Kahan (G)Thae
    (C)Neind Aati Nahein
    (G)Neind Aati Nahein
    (C)Neind Aati Nahein
     
  8. Quadrophenia

    Quadrophenia New Member

    i dont think theres an F chord. in the song..there is an A major barred diffinitely..
     
  9. faiqgiant

    faiqgiant .: Innocent :.

    may be ur rite actually dis is how i play it if u can improve it ur da champ man.
    im always ready to learn.
     

Share This Page