Req Help for this live version of song bring me to life

Discussion in 'English Guitar Tabs - Submit or Request' started by dawn_of_death, Feb 5, 2007.

  1. dawn_of_death

    dawn_of_death New Member

    Hi all. I need help in figuring correct chords of this live version of song Bring me to life(live). I downloaded this from some site n net and forgot the site :(

    I an tring to figure out same chords and to play in same way but not succesful yet. pls help. (Also sadly my regular id aint working properly donno y cant i make a new thread in that id)

    Here is link to hear it (hear in hi fi for better quality):-

    http://www.soundclick.com/bands/pagemusic.cfm?bandID=659509


    Here u can download too if u guys want:-

    http://hosted.filefront.com/dawnofdeath4100
    or,
    http://files.filefront.com/Evanescence__Bring_Me_To_emp3/;6690002;;/fileinfo.html
     
  2. dawn_of_death

    dawn_of_death New Member

    come on guys, aint here some one who can help me in figuring out correct chords as played here. more than 20 hrs and not even single reply:(
     
  3. dawn_of_death

    dawn_of_death New Member

    Sad

    lol. its realy sad that no one is giving replies. when i used to post here i never asked for any help back in those days. this is my first request thread and no one could even reply. It realy hurt me:(

    I will be deleting mp3s in max 72 hrs if i dont get any reply within that period.

    I request u guys pls help me figure out my first ever request in this site.
     
  4. bjr

    bjr Lady of the Evening

  5. bjr

    bjr Lady of the Evening

    You might have a bit of problem playing with the song because their tuning isn't perfect E but not a half step lower either...it's somewhere in the middle.
     
  6. dawn_of_death

    dawn_of_death New Member

    i used to post more than a year back. when jayswami and bandbajaa and other good members were quite active. that time i was not much old to guitar. now my old id just let me log in but no creating thread or replys allowed. donno why.
     
  7. dawn_of_death

    dawn_of_death New Member

    i will check the chords tonight at home. the version played here is realy hard to get with quite difficult way to playing chords.

    will check chords and get to u. ty for helping.

    And its realy true the site is not quite as much help as in old days.
     
  8. dawn_of_death

    dawn_of_death New Member

    Sadly,
    I checked but the version u mentioned bjr matches the rock version. The one i asked is accustic version which's link i had posted. the chords dont match to the accoustic version according to me. Looks like i had to figure out the tuning and chords by myself coz i dont think any one had heard this accoustic version of song.

    :( thx for tring and repling anyways.
     
  9. bjr

    bjr Lady of the Evening


    I did check the link you provided. The chords don't change as far as I can tell.

    As for the tuning, like I said, its the same....only not on perfect E.

    At least thats what I can make of it.
     
  10. dawn_of_death

    dawn_of_death New Member

    ya only 2 chords is playing til chorus.
     
  11. shakoor4u

    shakoor4u New Member

    req: Nokia Tune

    Title: Nokia Tune
    Tabbed by: Shakoor
    Tuning: E A D G B E

    |----12---10---------------10----8-------------8---7---------------------|
    |---------------5-----6--------------3----5--------------1---3-----8-----|
    |------------------------------------------------------------------------|
    |------------------------------------------------------------------------|
    |------------------------------------------------------------------------|
    |------------------------------------------------------------------------|
     
  12. shakoor4u

    shakoor4u New Member

    REQ:
    Title: Kyon Ki(Sad Version)
    Album: Kyon Ki
    Tabbed by: Shakoor(coolandwhat@yahoo.co.in)
    Tuning: E A D G B E

    |---4-----6----7----11-------7-----6-----4-----6-----|
    |-------------------------------------------------------|
    |-------------------------------------------------------|
    |-------------------------------------------------------|
    |-------------------------------------------------------|
    |-------------------------------------------------------|
    Kyon Ki Itna Pyaaaaaaaaaaar tumko

    |---4-----6----7----11-------7-----6--------------------|
    |-------------------------------------------------------|
    |-------------------------------------------------------|
    |-------------------------------------------------------|
    |-------------------------------------------------------|
    |-------------------------------------------------------|

    Karteee Hai Hum,

    |---11---13---11---13---11---10---11---------------|
    |-------------------------------------------------------|
    |-------------------------------------------------------|
    |-------------------------------------------------------|
    |-------------------------------------------------------|
    |-------------------------------------------------------|

    Kya Jaaaaanoo Gay.

    |---11-----10-----11------------7------6-------------|
    |-------------------------9-----------------------------|
    |-------------------------------------------------------|
    |-------------------------------------------------------|
    |-------------------------------------------------------|
    |-------------------------------------------------------|
    Hamaari Sanam.!
     
  13. bjr

    bjr Lady of the Evening


    precisely...which is what the tabs show too.
     
  14. dawn_of_death

    dawn_of_death New Member

    but i feel the chords are by using barr on 2nd fret + the chords only changes patern near "wake me up" part only before only 2 chords only play. the chords mentioned in link changes to power chords (near "without a sole" part) which actually fits prefectly on rock songs. but this acoustic one is littel bit tricky to play.
     
  15. bjr

    bjr Lady of the Evening

    um, no. The chords don't change in this tab either. It's still Em and C.

    E5 is a power chord....which means you're playing the 1st and the 5th of the chord. However, in essence, the chord is still Em and there is no change in the chord progression so you see, they're using the same chords. I think they're using power chords on the acoustic too. Play normal Em and C if you will.
     
  16. dawn_of_death

    dawn_of_death New Member

    ya i know that but still i dont think that em and c9 matches adjactly as played in the version.(i tried semi down tuning too still no match) :(

    still ty for ur help.
     
  17. dawn_of_death

    dawn_of_death New Member

    Deleting files...........

    Any one else want that mp3 pm me
     
  18. shakoor4u

    shakoor4u New Member

    This is the nokia ringtone. play fast

    E-0----------------
    B--3---2p0---0-----
    G----1--------2---2
    D---4-----0-2---2--
    A--------------4---
    E------------------

    notiation, p=pull off
     

Share This Page