REQ- Ghoom's intro

Discussion in 'Pakistani Guitar Tabs - Submit or Request' started by rizwan, Feb 25, 2005.

  1. rizwan

    rizwan New Member

    plzzzzzz this my really important req.i really need ghoom's intro or all the ghoom .i just love this song.trying to get the intro but i cant figure out.someone plzz post the original intro for ghoom plzzzzzzzzzzzz.
     
  2. rizaaj

    rizaaj Forum Leader

    were u asking for ghoom by Junoon.. if yes then here it is

    Code:
        Dm	
    E|--1--1--0--0--0--0--3--3--------------|
    B|--3--3--2--2--1--1--0--0--------------|
    G|--2--2--2--2--2--2--2--2--------------|
    D|---------------------------------------|
    A|---------------------------------------|
    E|---------------------------------------|
    
     
  3. ijlal

    ijlal The B chord

    e---4-------4-------4-----6-------6-------6--------
    B------8-------8-------8-----8-------8-------8-----
    G--------8--------8-------------8-------8----------

    r u talking abt this??
     
  4. rizwan

    rizwan New Member

    yes i was talking abt junoon's ghoom.but rizaaj i m not really good with chords.thnx for tht.and ijlal it dont sound like tht.i do mean junoon's ghoom,but not the starting riff,the main intro,i m not good with telling wht exact thing i want.ok u play the ghoom song ,and the first guitaring solo tht comes in first thing in tht song.tht one.if u guys think wht i m talkin abt.well thnx anyways.
     
  5. rizaaj

    rizaaj Forum Leader

    so do you mean INTRO or SOLO???
     
  6. rizaaj

    rizaaj Forum Leader

    okay get it urself

    Code:
    Guitar Tabs by: Junoon
    Tabs for song: Ghoom 1
    
    #----------------------------------PLEASE NOTE----------------------------------#
    # This file is the author's own work and represents their interpretation of the #
    # song. You may only use this file for private study, scholarship, or research. #
    #-------------------------------------------------------------------------------#
    
    
    
    Ghoom	-	Transcribed by Parees
    
    
    X : Mute the string
    s : slide
    
    Strum each chord a couple of times before moving onto the next one.
    For the correct strumming pattern listen to the original song.
    
    E --X----------X--------X-------X-----------------------------
    B --4----------3--------2-------1-----------------------------
    G --3----------3--------3-------3-----------------------------
    D ------------------------------------------------------------
    A ------------------------------------------------------------
    E ------------------------------------------------------------
    
    when moving between the following chords slide ur fingers
    
    E --X----------X--------X-------X-----------------------------
    B --4---------s6-------s7------s9-----------------------------
    G --3---------s5-------s6------s8-----------------------------
    D ------------------------------------------------------------
    A ------------------------------------------------------------
    E ------------------------------------------------------------
    
    
    Alternative version by Atif Javed Ali:
    
    X : Mute the string
    
    
    Strum each chord a couple of times before moving onto the next one.
    For the correct strumming pattern listen to the original song.
    
    E------10---------9--------8---------7-----------------------
    B------10--------10-------10--------10-----------------------
    G-------x---------x--------x---------x-----------------------
    D -----------------------------------------------------------
    A -----------------------------------------------------------
    E -----------------------------------------------------------
    
    
    Yet another version by Ahmar Ghaffar (ahmars@softhome.net)
    
                          Ghoom
                                    *****
    Band : Junoon
    Song : Ghoom
    Album : Parvaaz
    
    
    Figure A:
    
        Dm  
    
    E--1--1--0--0--0--0--3--3--------------
    B--3--3--2--2--1--1--0--0--------------
    G--2--2--2--2--2--2--2--2--------------
    D--------------------------------------
    A--------------------------------------
    E--------------------------------------
    
    
    With Figure A:
    
    
    Chorous :
    
    Dm      Dm
    
    Ghoom Carkha ghoom .....ghoom etc
    
    
    Dm           F      Dm
    
    Teri Kathan Wali Jeeway
    
            F           Dm
    
    Laryan Watan Wali Jeeway        
    
    Bb              
    
    Ik allah koolon mein dardi...
    
    
    
    
    
    Verse :
    
    Dm      Dm      Dm
    
    Charkha boolay sain sain...
    
    F          Dm
    
    
    
    I think u shud get the idea from that!!
    
    
    Usman Haroon
    
    Source: http://www.azchords.com
     

Share This Page