REQ:everything i do i do it for you tabs

Discussion in 'Hindi Guitar Tabs - Submit or Request' started by crownsuper, Mar 9, 2008.

  1. crownsuper

    crownsuper New Member

    REQ:everything i do i do it for you tabs
    guys i badly need the tabs of this....i posted in hindi section as this sec seems to be more active though i had psted this thread in english 1 also..but i h've more faith in u guys (hindi sec ppl)
    for ex u see this vid....this video is amazing .....superb video
    http://youtube.com/watch?v=gOrNL0UeXiw
     
  2. crownsuper

    crownsuper New Member

    where r the masters.........cummon guys....see the vid uncode the tabs.....cummon.......yarr......or else post ur own tabs......
     
  3. crownsuper

    crownsuper New Member

    r masters dead.................agreed that u all r losers?????cumon its ma chaallenge.....have guts go ahead see the video nd then posts the chords+tabs....
     
  4. amitrichardxess

    amitrichardxess New Member

    get pro tabs from ultimate-guitar.com
     
  5. DRBILLA

    DRBILLA New Member

    Well bro its not my work at all except copying and pasting it. I have two versions of this song which i never tried just sharing. It may help u.

    1st version
    ...........
    ...........
    ...........


    (Everything I Do)I Do It For You
    (Bryan Adams/Robert "Mutt" Lange/Michael Kamen)


    CAPO 1

    INTRO: C G F G


    Verse 1:

    C G F G
    Look into my eyes, you will see what you mean to me
    C G
    Search your heart, search your soul and when you
    F C G
    find me there, you'll search no more
    Dm C Dm
    Don't tell me it's not worth trying for
    Dm C Dm
    You can't tell me it's not worth dying for
    C/G G C
    You know it's true, everything I do, I do it for you


    Verse 2:

    C G F G
    Look into your heart, you will find, there's nothing there to hide
    C G F C G
    Take me as I am, take my life, I would give it all, I would sacrifice
    Dm C Dm
    Don't tell me it's not worth fighting for
    Dm C Dm
    I can't help it, there's nothing I want more
    C/G G C
    You know it's true, everything I do, I do it for you


    Bridge:

    Bb Eb Bb F
    There's no love like your love, and no other could give more love
    C G D G
    There's no where unless you're there, all the time, all the way

    F C F
    |----------|-------------------------------------------------------9------
    |----------|-----------------------------------------9-9------9/11--11-11-
    |-8-10-----|-8/10~--/10-8/6-3/6---6/8------6-6--8/10-----6-6--------------
    |------8-8-|---------------------------6/8--------------------------------
    |----------|--------------------------------------------------------------
    |----------|--------------------------------------------------------------

    C
    -------------------------|
    11/9/11------------------|
    --------8h10--8b-8b-8b-6-| (bend the three 8's one half note each)
    -------------------------|
    -------------------------|
    -------------------------|


    Ending:

    Dm G
    Oh you can't tell me it's not worth trying for
    Dm G
    I can't help it there's nothing I want more
    F C G
    Yeah I would fight for you, I'd lie for you, walk the
    F Fm
    wire for you, yeah I'd die for you
    C G F F6 C
    You know it's true, everything I do, oh, I do it for you




    2nd version
    ...........
    ...........
    ...........


    SONG: Everything I do I do it for You
    ARTIST" Bryan Adams.


    This is as much as I can figure out.
    it's easiest if you just use the top four strings (E, B, G, D)


    each 4 dashes is an eight note.. the star on top is the beginning of each
    measure

    * * * * | * * * * |
    2---------------2-------2-3-3-2-| 0---------------0-------0-5-5-0- |
    ----3-------3-------3-----------| ----2-------2-------2---2-5-5--- |
    --------2-------2-----------0---| --------2-------2--------------- |
    0-----------------------0-------| 2------------------------------- |

    * * * * | * * * * |
    3---------------3---------0-2---| 0---------------0-------0---0--- |
    ----0-------0-------0---3---3-3-| ----2-------2-------2-------2--- |
    0-------0-------0-------2-----2-| --------2-------2-------2------- |
    --------------------------------| -------------------------------- |

    * * * * | * * * * |
    2---------------2-------2-3-3-2-| 0---------------0-------0-5-5-0- |
    ----3-------3-------3-----------| ----2-------2-------2---2-5-5--- |
    --------2-------2-----------0---| --------2-------2--------------- |
    0-----------------------0-------| 2------------------------------- |

    3---------------3-------3+------| 2----0------2---0-----------0--- |
    ----0-------0-----------0-------| 3-----3-----3---2--------------- |
    0-------0-------0-------0-------| ------------2------------------- |
    ------------------------0-------| 0-----------0---2--------------- |

    etc.. ihopefully by now you can figure out that I'm basically just
    playing the chords with a certain plucking order. that's all it really is.
    Here are the chords I use (only top four strings) (DGBE)

    VERSE:

    D(0232) A(2220) G(0003)
    Look Into my eyes There ...

    A(2220)
    Me....

    D(0232) A(2220) G(0003)
    search your heart search your soul...

    D(0232) A(2220)
    search...no more

    G(0003) D(0232) A(2220)
    You can't tell me it's ....
    You can't tell me it's ...

    you know it's..
    D(0232) A(2220) D(0232)
    true..everything I do...

    VERSE2:

    A(2220) D(0232) A(2225) G(0003)
    Ther's no love like your love ...

    D(0232) A(2225) *(4546) A(2225)
    There's no where unless ...

    *-- not sure what chord this is.. was about to put Ab but that's wrong...

    (instrumental) G(0003) D(0232) G(0003) D(0232)

    G(0003) D(0232) A(2220)
    Can't tell me it's ...
    I can't help it ....

    yeahh..

    D(0232) A(2225) G(0003)
    I'd fight for you I'd ...

    G(0003) A(2225) *(3336)
    yeah i'd die ....


    D(0232) A(2220) G(0003)
    you know it's true ....

    A(2220) D(0232)
    I'd do it for you..
     

Share This Page