Req... Ep Kya Hota Chords

Discussion in 'Pakistani Guitar Tabs - Submit or Request' started by BigBoss, Apr 4, 2005.

  1. BigBoss

    BigBoss New Member

    Hello guys..
    listen .. the song Kya Hota by eP is really ko0ol... the intro n solo is already posted by Imran which is 100% correct i belive...

    SOLO-

    |-----------------------------------|
    |-----------------------------------|
    |-----------------------------------|
    |-----8--------9--------------------|
    |-6-------6--------------7----------|
    |-----------------------------------|


    |-------------0--0------------------|
    |-------------0--0------------------|
    |-------------0--0------------------|
    |-----9-------10--10----------------|
    |-7-------7---7---7-----------------|
    |-------------0---0-----------------|


    |------0--0-------------------------|
    |------0--0-------------------------|
    |------0--0-------------------------|
    |----7-5--5-------------------------|
    |--5---7--7-------------------------|
    |------0--0-------------------------|

    |----------0---0--------------------|
    |----------0---0--------------------|
    |-------0--0---0--------------------|
    |----6-----4---4--------------------|
    |-4--------6---6--------------------|
    |----------0---0--------------------|



    INTRO-


    |--------------------------------|
    |---------------7-7--6-6---------|
    |6-8-6-8-6-8-6-8-----------------|
    |--------------------------------|
    |--------------------------------|
    |--------------------------------|

    |-----------------7-7-6-6--------|
    |------------------------6-------|
    |-6-8-6-8-6-8-6-8----------------|
    |--------------------------------|
    |--------------------------------|
    |--------------------------------|

    |--------------------------------|
    |--------------------------------|
    |-6-8-6-8-6-8-6-8--------------5-|
    |--------------------------------|
    |--------------------------------|
    |--------------------------------|


    |--------------------------------|
    |---------------7-7--6-6---------|
    |6-8-6-8-6-8-6-8-----------------|
    |--------------------------------|
    |--------------------------------|
    |--------------------------------|

    |-----------------7-7-6-6--------|
    |------------------------6-------|
    |-6-8-6-8-6-8-6-8----------------|
    |--------------------------------|



    but i need the chords... the chords between the songs... cant figure them out :think: .. need help plz :eek::
     
  2. BigBoss

    BigBoss New Member

    hey by the way.. i messed up wid the solo n intro.. u'll guess it
     

Share This Page