REQ: Enrique Iglesias - Cant Escape My Love

Discussion in 'English Guitar Tabs - Submit or Request' started by Orange Guitar, Jan 24, 2005.

  1. Orange Guitar

    Orange Guitar IGT's ALLROUNDER

    Hi! Can anyone please post the tabs and chords for "Enrique Iglesias - Cant Escape My Love". I really need this tab.
     
  2. rizaaj

    rizaaj Forum Leader

  3. Orange Guitar

    Orange Guitar IGT's ALLROUNDER

    Well! They are good but not complete. Can u find me a full version?
     
  4. nik_bokacheley

    nik_bokacheley :help: I'm a mad :sadbye:

    INTRO
    intro

    e---------------------------------
    B---------------------------------
    G-----4---4---4-------4---4---3---
    D---4---4---2---2---------------4-
    A-2-----------------6---6---------
    E-----------------4---------2-----


    chords
    e-------------------------------------
    B-------------------------------------
    G-4---4---------4-------4---------3---
    D---4---4-2-2-2---2-6---------------4-
    A-2-------------------6---6-----------
    E-------------------4-------2-2-2-----
     
  5. Orange Guitar

    Orange Guitar IGT's ALLROUNDER

    i want the whole song.
     
  6. nadish

    nadish Active Member

    give me the link form where I can download this song, coz I love E.I
     
  7. Orange Guitar

    Orange Guitar IGT's ALLROUNDER

    search at mp3****s dot com. i got it from my friend.
     
  8. manish_cool

    manish_cool mastibaaz

    Artist: Enrique Iglesias
    Title: Can`t escape my love
    Tabbed by: Marko Borosic
    E-mail: mborosic@web.de

    Hi folks,
    I don`t like Enrique Iglesias !! This guy cannot sing and his music sounds like...
    But since a lot of people asked me to tab this song, I decided to do so and publish
    it, so I can rest in peace.

    Chords used:
    B (799877) or (223332)
    E (779997) or (022100)
    C#m (466444)
    F# (244322)


    Intro:

    Guitar 1
    ------------------------------------------------------------|
    ------------------------------------------------------------|
    -------------------------------4----4----3------------------|
    --------9---9---9---------------------------4---------------|
    ------9---9---7---7----------6---6--------------------------|
    --7-----------------------4-----------2---------------------|

    Guitar 2
    ------------------------------------------------------------|
    ------------------------------------------------------------|
    -------4-4--------------------------------------------------|
    ----------------------------6-6-------4-4-4-4---------------|
    ---------------7-7-7-7--------------------------------------|
    ------------------------------------------------------------|

    this is repeated throughout the whole song

    this is played in the parts in which the genius does not sing

    ----7---7/6---------7--------7--7/6/7----7/9----------------|
    ------------6-----------------------------------------------|
    ------------------------------------------------------------|
    ------------------------------------------------------------|
    ------------------------------------------------------------|
    ------------------------------------------------------------|
     
  9. manish_cool

    manish_cool mastibaaz

    Can`t escape my love

    Artist: Enrique Iglesias
    Title: Can`t escape my love

    Chords used:
    B (799877) or (223332)
    E (779997) or (022100)
    C#m (466444)
    F# (244322)


    Intro:

    Guitar 1
    ------------------------------------------------------------|
    ------------------------------------------------------------|
    -------------------------------4----4----3------------------|
    --------9---9---9---------------------------4---------------|
    ------9---9---7---7----------6---6--------------------------|
    --7-----------------------4-----------2---------------------|

    Guitar 2
    ------------------------------------------------------------|
    ------------------------------------------------------------|
    -------4-4--------------------------------------------------|
    ----------------------------6-6-------4-4-4-4---------------|
    ---------------7-7-7-7--------------------------------------|
    ------------------------------------------------------------|


    ----7---7/6---------7--------7--7/6/7----7/9----------------|
    ------------6-----------------------------------------------|
    ------------------------------------------------------------|
    ------------------------------------------------------------|
    ------------------------------------------------------------|
    ------------------------------------------------------------|
     
  10. Orange Guitar

    Orange Guitar IGT's ALLROUNDER

    Nice work.gr8!!!
     

Share This Page