req: "ek haseena thi" song tabs plz

Discussion in 'Hindi Guitar Tabs - Submit or Request' started by prachi_ee, Jul 21, 2007.

  1. prachi_ee

    prachi_ee New Member

    hi ppl i want "ek haseena thi" song tabs plz help me
     
  2. gulabjamun2

    gulabjamun2 New Member

    Use the Search functionality

    Instead of waiting for a reply, please use the search functionality to look up this song.

    The tabs for this song have been posted a number of times by various people.

    Good luck with learning the guitar ;)

    Cheers!
    :beer:
     
  3. gulabjamun2

    gulabjamun2 New Member

    Here you go...

    Since you are a newbie, I decided to do the hard work for you this time.

    For the intro and interludes, check out:
    http://www.indianguitartabs.com/showthread.php?p=62531&highlight=ek+hasina+thi#post62531

    Tabs for vocals: check post #34 by Bandbaaja at the following link:
    http://www.indianguitartabs.com/showthread.php?t=4943&highlight=ek+hasina+thi

    Most of the popular songs have already been posted before. The "search" link towards the top of the screen is your friend ;)

    Cheers!
    :beer:
     
  4. prachi_ee

    prachi_ee New Member

    thank you gulabjamun2 can u plz give me esaiest song on gitar
     
  5. prima

    prima New Member

    Here's ur tab for the vocal melody of the song... sorry 4 the delay..

    Film : Karz
    Song : Ek Hasina Thi
    Vocal Melody.


    E |-----------------------------------------------------------------------------------------|
    B |---4--3-----3---------3----------------------------------------------------3--4---6--4---|
    G |---------5-----4---------5--4--5---------------------------------5---4--5----------------|
    D |----------------------------------6------------------6---8--5---------------------------|
    A |-----------------------------------------6---8-5-----------------------------------------|
    E |-----------------------------------------------------------------------------------------|

    Ek ha si na thi....Ek di wa na tha....kya u mar...kya sa ma...kya ja ma na tha aa aa

    E |-----------------------------------------------------------------------------------------|
    B |---4--3-----3---------3----------------------------------------------------3--4---6--4---|
    G |---------5-----4---------5--4--5---------------------------------5---4--5----------------|
    D |----------------------------------6------------------6---8--5---------------------------|
    A |-----------------------------------------6---8-5-----------------------------------------|
    E |-----------------------------------------------------------------------------------------|

    Ek ha si na thi....Ek di wa na tha....kya u mar...kya sa ma...kya ja ma na tha aa aa

    E |-----------------------------------------------------------------------------------------------|
    B |-----------------------------------------------------------------------------------------------|
    G |---------s-------------------s----------------------s-----------4----------------s-------------|
    D |---5-5--6/8-8--6-6-----3-3--5/6-6--5-5-----5----5--6/8-8---6-6-----6-----3---3--5/6-6---5-5----|
    A |-----------------------------------------------------------------------------------------------|
    E |-----------------------------------------------------------------------------------------------|

    e k din o mili....log mil ne lage....phir mo hab bat huyi ee ee....bas ka ya mat huyi

    E |-----------------------------------------------------------------------------------------|
    B |-------------3---3--4---------------3-3--4--------------3-3--4-----------------3-3--4----|
    G |---5---4--5---------------5---4--5-------------5-4--5---------------5----4--5------------|
    D |-----------------------------------------------------------------------------------------|
    A |-----------------------------------------------------------------------------------------|
    E |-----------------------------------------------------------------------------------------|

    kho ga ye tum ka ha....sun ke ye das ta....log hai ran hai....kyun ki an jan hai

    E |-----------------------------------------------------------------------------------------|
    B |---4----3--------------------------------------------------------------------------------|
    G |-----------5---3-------------8----5-3----------------------------------------------------|
    D |-------------------5--6--6-8-----------6---6/8--3--5-------------------------------------|
    A |-----------------------------------------------------------------------------------------|
    E |-----------------------------------------------------------------------------------------|

    ishq ki hai woh ga li e e e....hat jis ki chali

    E |-----------------------------------------------------------------------------------------|
    B |---3-----3--4----3-----3--4----3-----3--4---------------3---------3---s------------------|
    G |------5-------------5-------------5--------5---5--2--5-----4---5-----5/7-5--5------------|
    D |-----------------------------------------------------------------------------------------|
    A |-----------------------------------------------------------------------------------------|
    E |-----------------------------------------------------------------------------------------|

    us gali mein me ra aa na...j a a na tha ek ha si na thi ek di wa na tha

    E |-----------------------------------------------------------------------------------------|
    B |---3-----3---4---3------3--4---3------3--4---------------3---------3---s-----------------|
    G |-------5-------------5-------------5--------5---5--2--5-----4---5-----5/7-5--5-----------|
    D |-----------------------------------------------------------------------------------------|
    A |-----------------------------------------------------------------------------------------|
    E |-----------------------------------------------------------------------------------------|

    kya u mar thi kya sa ma tha kya ja ma na tha ek ha si na thi ek di wa na tha

    E |-----------------------------------------------------------------------------------------|
    B |-----------------------------------------------------------------------------------------|
    G |----------p--------------------p--------------------p------------------------------------|
    D |---5--5--6/5--3-----3---5--5--6/5--3-----3---5--5--6/5--3-----3--------------------------|
    A |-----------------6--------------------6--------------------6-----------------------------|
    E |-----------------------------------------------------------------------------------------|

    us ha seen ne ka ha..us ha seen ne ka ha..su no ja ne wa fa

    E |------------------------------------------------------|
    B |------------------------------------------------------|
    G |----------p-------------------------------------------|
    D |---5--5--6/5--3------3---5--5--6---3-------3----------|
    A |------------------6---------------------6-------------|
    E |------------------------------------------------------|

    ke pa lat yeh tu mi..te re bin kuch na hin

    E |-------------------------------------------------------------------------------------|
    B |-------------------------------------------------------------------------------------|
    G |---5----4--5--------------5-4--5--------------5-4--5-------------5---4--5------------|
    D |---------------6--5--5-------------6--5--5--------------6-5--5--------------6-5--5---|
    A |-------------------------------------------------------------------------------------|
    E |-------------------------------------------------------------------------------------|

    tujh pe mar ti hu mein pyar kar ti hu main baat kuch aur thi woh na zar tor di

    E |--------------------------------------------------------|
    B |---4--3-------------------------------------------------|
    G |---------5---3-------------8--5--3------s---------------|
    D |----------------5---6--6-8----------6--6/8--3--5--------|
    A |--------------------------------------------------------|
    E |--------------------------------------------------------|

    us ke dil me chu pi e e e **** ****** ki si (cudn't make out the words)

    E |-----------------------------------------------------------------------------------------|
    B |---3-----3--4--3-----3--4----3-----3--4---------------3---------3---s--------------------|
    G |------5----------5--------------5--------5---5--2--5-----4---5-----5/7-5--5--------------|
    D |-----------------------------------------------------------------------------------------|
    A |-----------------------------------------------------------------------------------------|
    E |-----------------------------------------------------------------------------------------|

    pyaar ka a o pha saak ek ba ha na tha ek ha si na thi ek di wa na tha

    E |----------------------------------------------p------------------p-----------|
    B |---------------------------------------4--4--4/3-3-----3--4--4--4/3-3-----3--|
    G |---------------------------h------------------------5------------------5-----|
    D |------------0----1--5--3--3/5------------------------------------------------------|
    A |---3--2--3--------------------6--5--6------------------------------------------|
    E |------------------------------------------------------------------------------|

    be wa fa yaar ne ap ne mah boob se ai sa dho ka ki ya ai sa dho ka ki ya

    E |----------p------------------p--------------|
    B |---4--4--4/3-3-----3--4--4--4/3-3-----3-----|
    G |----------------5------------------5--------|
    D |--------------------------------------------|
    A |--------------------------------------------|
    E |--------------------------------------------|

    jahar uskoo di ya jahar uskoo di ya

    E |------------------------------------------------------------------------------|
    B |---3---3--4---3---3--4---3---3--4----------------3----------3---s-------------|
    G |-----5----------5----------5------5---5--5--2--5---4---4--5----5/7--5---------|
    D |------------------------------------------------------------------------------|
    A |------------------------------------------------------------------------------|
    E |------------------------------------------------------------------------------|
     

Share This Page