REQ.. DIL DIL pakistan chord With solo

Discussion in 'Pakistani Guitar Tabs - Submit or Request' started by syed_420, Sep 24, 2004.

  1. syed_420

    syed_420 New Member

    hay guyz i need dil dil pakistan chords by mizraab with solo ;). i dono if anyone posted before or not so guyzz plzzz help me. ill be evry thank full to u... :rock:

    peace out A town

    shariq
     
  2. invincible2k

    invincible2k New Member

    --------------------------------------------------------------------------------

    Mizraab - Dil Dil pakistan
    Tabbed by mehvar Amin

    You cuud also go Drop D tuning and it will be a lot easier to play the intro.. ..


    00:03 - 00:08
    E|----------------------------
    B|----------------------------
    G|----------------------------
    D|-99-99-7~--------------------
    A|-99-99-7~--------------------
    E|-77-77-7~--------------------

    E|---------------------------------------
    B|---------------------------------------
    G|---------------------------------------
    D|--9~-7~---9-7---12--9-7---------------- X2
    A|--9~-7~---9-7---12--9-7----------------
    E|--7~-5~---7-5---10--7-5----------------

    E|----------------------------------------
    B|--------------------------------------- 00:18
    G|--9~-5~---9-7---12--9-7----------------X2 ----777---------------------
    D|--9~-5~---9-7---12--9-7---------------- ----777---------------------
    A|--7~-7~---7-5---10--7-5---------------- ----555---------------------
    E|--------------------------------------- ----------------------------


    for the rythm in teh verse just Strum some chrds on the higher chrds "DGB"
    try muting the strings VERy lightly that might also help



    Lead in lyrics
    00:35
    E|----------------
    B|----------------
    G|----------------
    D|----19H1719-----
    A|----------------
    E|----------------
    00:40
    E|-----------------
    B|---17H15H16------
    G|-----------14---- fast
    D|-----------------
    A|-----------------
    E|-----------------
    00:45
    E|-----------------
    B|-----18H16H18----
    G|-----------------
    D|-----------------
    A|-----------------
    E|-----------------

    E|-----------------
    B|-----------------
    G|----------------- ??????
    D|-----------------
    A|-----------------
    E|-----------------

    i doubt ne one can tab the Dil dil pakistan solo ... :( except the MAN him self faraz...neways
    i cant figure out the chorus cuz there r 2 guitars and faraz is singing (no pun intended) ..i cant seem to get the rthym...

    faraz shud also relese a UNPLugged version of this song...his vocals wud sound better wid the Acoustic..nehow..
     
  3. syed_420

    syed_420 New Member

    thnkx a lot man. its work good. i know its very hard to play solo but i m talking about the middle part.anyways thnkx a lot man.
     
  4. AYH

    AYH New Member

  5. nshahzad

    nshahzad New Member

    I had fully tabbed it some time ago, but I can't find the files now, my computer crashed
     

Share This Page