[REQ] Deewaana dil deewaana - Kabhi Haan Kabhi Na

Discussion in 'Hindi Guitar Tabs - Submit or Request' started by vidhansinghai, May 24, 2004.

  1. vidhansinghai

    vidhansinghai New Member

    Anyone knows the chords for "Deewaana dil deewaana" from Kabhi Haan Kabhi na? Please send across.
     
  2. vidhansinghai

    vidhansinghai New Member

    no replies??? Hey, you guys are geniuses for God's sake. Do something!!!
     
  3. prashant_yadavv

    prashant_yadavv New Member

    man i am looking for the same but unfortunately everyone have neglected it. if u have now so please send
     
  4. jozko

    jozko Banned

    CHORDS & REQ - Deewana Dil Deewana - Kabhi Haan Kabhi

    Code:
    ----------------------------------------------
    Movie   Kabhi Haan Kabhi Naa
    Song    Deewana Dil Deewana
    Year    1993
    MD      Jatin Lalit
    Singers Udit Narayan & Amit Kumar
    C 4/4??
    ----------------------------------------------
    
    Video http://www.youtube.com/watch?v=DBPQxQwGYvI
    More vids http://www.youtube.com/profile_play_list?user=josephtube

    Code:
    B--------5-------5----|--------3-------3---
    G--5-2-5---5-2-5---5--|--4-0-4---4-0-4---4-
    chords played along
    |Am...		      |G...|
    
    The intro may alternatively be played by holding respective
    chords and arpeggiating, barre for easier picking
    
    G--2-0-2--5-2---2--5--2-------------------
    D-------------3---------------------------
    |F...|
    
    B-----------------------------3-----------
    G--------2-1-4----2h4-5-----4---5---------
    D--2-1-2----------------------------------
    |Am...|
    
    |Am|G|%|Am| X2
    Code:
    at around 39th sec
    
    e----------------------8-7-----------7fbr-----
    B---------3-4-5-----10-----10-----8hb------8r-
    G-1s2-4-5---------------------5s7-------------
    
    e--------5------------------------------------
    B-----6----8---6-5----------4h5---------------
    G-4s5---------------7--5--7-------------------
    
    |Am|%|G|%|
    
    Code:
    Flute piece something like
    e----------6-8-6-----66-----------------------
    B-6h7-99-9-------9-9-----6-----9p7-6----------
    
    e----------6-8-6-----666-
    B-6h7-99-9-------9-9-----
    Rythm seems to simulate that of the train in song theme
    Code:
    Deewana{G}aa dil deewana{Am}aa, 	|G|%|%|Am|%|%|
    Deewanaa{Dm}a{G}a tera deewana{Am}aa   	|Am|Dm|G|%|%|Am|%|%|
    
    Kab se kare hai te{G}ra inte{Am}zaar,	|Am...|/|G|Am|
    kab aayengi meri j{G}ane ba{Am}har	|Am|%|G|Am|
    
    Kab se kare hai te{G}ra inte{Am}zaar,	|Am|%|G|Am|
    kab aayengi meri j{G}ane ba{Am}har	|Am|%|G|Am|
    
    Ke j{G}itna hi behl{Am}au,		|G|%|Am|%|
    yeh u{G}tna hi machalta hai d{Am}il.	|G|%|Am...|
    
    Deewana{G}aa dil deewana{Am}aa, 	|Am|G|%|%|%|Am|%|%|
    Deewanaa{Dm}a{G}a tera deewana{Am}aa   	|Am|Dm|G|%|%|Am|%|%|
    
    Andaaz di{G}khlati sausau ta{Am}rah ke, 
    jalwe lu{G}tati hue  			|GGG.|%|Am|%|G|%|%|%|
    
    Andaaz dikhlati sausau tarah ke, 
    jalwe lutati hue  			|G|%|Am|%|G|%|%|
    
    Aati hogi mausam ke sa{Am}ath 		|G|%|Am|%|
    gulshan khi{G}lati hui		     	|G|%|%|%|
    
    Aa{Am} bhi jaaa{G}a, ab jaane ja{Am}a.	|Am...|/|G|%|%|Am|%|%|
    
    Deewana...
    
    at around 3.38 secs
    |Am|%|
    
    Dil se la{G}ga kar ke rakhha ab{Am} tak,	
     resham ka te{G}ra rumaal 		|GGG.|%|Am|%|G|%|%|%|
    
    Dil se laga kar ke rakhha ab tak,	
     resham ka tera rumaal 			|G|%|Am|%|G|%|%|
    
    Aage kahoon kya jaane{Am}man 
    aa dekh j{G}a mera haal			|G|%|Am|%|G|%|%|%|
    
    Aa bhi..		
    
    At 4.50 secs Flute piece like the one above repeated
    
    {Am}Tuta si{G}tara to maanga tha ra{Am}b se, 
    tujhko hi ja{G}ane wafaa		|Am|G|%|Am|%|G|%|%|... 
    tuta..
    
    {G}Jo tut jaye {Am}tare tamam, 
    {G}mango wahi ek dua			|G|%|Am|%|G|%|%|%|
    
    Aa bhi..
    
    Code:
    Song Melody
    
    
    ---deew-------------------deew---------------
    B-----------------------------3--------------
    G--2-5-4--4-2---4-2-------2-5---4--4-2---4-2-
    D-------------5------------------------5-----
    
    
    --Kab------------------Kab-------------------
    G-----2---22--44-----------2---2-2-4-4-------
    D--55---5--------2-0-2--55---5---------2-0-2-
    
    
    
    --ke jitna----------ke utna------------------
    G----------2---2--------------2-4---2--------
    D------55----5---2-------55-5-----5----------
    A-5-55--------------5-55---------------------
    I don't know if chords of this song are already posted. I did some search but couldn't find. I tried to strum and got these chords. It is a very nice song!!

    PS: Bandbaaja has almost approved these chords. He says it is 2 chord song with some grace chords which may be neglected. Thanks to Bandbaaja!

    Edit: Posting a fuller version as I play. Chords, notes and timings maybe wrong. All of u chk and post corrections

    search keys : deewaanaa deewaana diwana deevana divana deevaanaa deevaana divanaa diwanaa kabi haa na
     
  5. guitar_lover

    guitar_lover New Member

    nice post !!!!3 requsets for jozko....

    Can you post your own video playing this song...(please i knw chrds r very easy but stll tht would b a great help)

    &

    2nd please post the chords of FULL SONG (PLEASE PLEASE PLEASE)

    3rd Can u post the leads used in the song ( i mean major interlude & intro whcih is on guitar)

    this is one my very fovourite song so please help me playing this ...

    HOPE U'LL RPLY
     
  6. Sash

    Sash New Member

    I had these chords....let me search my database
     
  7. jozko

    jozko Banned

    guitar_lover, thx for replying. it's a fav of mine too.

    Sash plz post the correct and complete chords n tabs if you found them
     
  8. jozko

    jozko Banned

    bump
    guitar_lover, i have posted more details. chk my first post above
     
  9. Morbid_Angel

    Morbid_Angel Sid the sloth

    very nice post jozko.. =) ..excellent work.
     
  10. nac_sam

    nac_sam New Member

    thanks bro... :)
     

Share This Page