REQ: Could anyone get me all interludes of SHUKRAAN ALLAH from KURBAAN

Discussion in 'Hindi Guitar Tabs - Submit or Request' started by harshpnd, May 31, 2015.

  1. harshpnd

    harshpnd New Member

    Request of tabs of Shukran ALlah
     
  2. fishtank

    fishtank Member

    Shukran allah wallahabdullila - (4)
    Najaro se najarein mili toh, jannat si mehaki fijaaye

    E---------4--6--6/8--11--8\6---4---
    B--4--6----------------------------
    G----------------------------------
    D----------------------------------
    A----------------------------------
    E----------------------------------


    Lab ne jo lab chhu liya toh,


    E--11------------
    B----------14----
    G----------------
    D----------------
    A----------------
    E----------------


    aasmaan se barasi duwaaye


    E----------4--4--------4/6---4---
    B--4--6-----------6--------------
    G--------------------------------
    D--------------------------------
    A--------------------------------
    E--------------------------------

    Aisi apani mohabbat, aisi ruhe ibaadat
    Hum pe meherbaan do jahaan...
    Shukran allah wallahabdullila - (4)



    E---------4--6--4--6--4------------------------4--6--4--6--4---8--6---------------------
    B--4--6---------------------4--4/6---4h6---------------------------------4/6------------
    G---------------------------------------------------------------------------------------
    D---------------------------------------------------------------------------------------
    A---------------------------------------------------------------------------------------
    E---------------------------------------------------------------------------------------

    E----------4--6--4--6--6--6--4--6--4--6--6--6/8--4---
    B--4--6----------------------------------------------
    G----------------------------------------------------
    D----------------------------------------------------
    A----------------------------------------------------
    E----------------------------------------------------

    so much for now....
     
  3. harshpnd

    harshpnd New Member

    thanlks for ur help...............but i asked for interludes dude!!!
     

Share This Page