Req: Chords of Le Chale from My Brother Nikhil

Discussion in 'Hindi Guitar Tabs - Submit or Request' started by Nir, Dec 2, 2005.

  1. Nir

    Nir New Member

    Hi Guys......normaly I post on Bengali forum..this is my first post. Can u please
    give me the chord of Le Chale..from My Brother Nikhil....


    cheers........

    :beer:
    nir
     
  2. .:SpY_GaMe:.

    .:SpY_GaMe:. New Member

    http://www.indianguitartabs.com/showthread.php?t=7270

    Le chale
    ---------

    Em-----------C----Em-----------C---
    Chandni Muskuray Jab hawa kuch kahe
    Am-------------D----Am-----------D
    Samjho meri sadaye hai tere sath me
    Bb--------C-----------D
    jo ghana fiza mein andhera
    Bb------------C----------G---D
    Layenge hum sawere tere liye

    Em-----Bm------G
    Le chale Le chale
    C-----Am------F
    iyado ke iye kafile
    Em-----Bm------G
    jayenge hum jnaha
    C-----Am---F
    Iye jami asma
    C
    Mile

    if you don't have the song........

    you can simply download the demo song from this site...

    http://www.mybrothernikhil.com/multimedia


    not my work refer to the link i posted
     
  3. abhimanjrekar

    abhimanjrekar ----> Zhol-Man<----

    hey ther is another on this iste..it starts with Am and F
     
  4. xtremes19

    xtremes19 New Member

    e----------7--5--------------------------7-5---------
    B------------------------8-8---------------------------8-8--
    G--------0-------------------------------0------------------
    D-----------------------------------------------------------
    A--7---7-----------7---7---7-------7---7---------7---7---7-
    E----7---------------7---------------7-------------7--------
    * intro *

    e-------------------------------7-5------------------------
    B-----------------------------------8-----------------------
    G--------0------0-------------0----------------------------
    D-----------------7-----------------------------------------
    A--7---7-----7----------7---7-----------------------------
    E----7---------7----------7--------------------------------
    ...... hoon hooon ..oon hoo..oon


    e------------------------------5----------------------------
    B--------------------------------8--------------------------
    G--------0--------------------------------------------------
    D------------------7----------------------------------------
    A--7---7-----7---7-------7---7---7-----------------------
    E----7---------7-----------7-------------------------------
    ......hoo..oon hoon... hooon


    e-------------------------------7-5-------------------------
    B-----------------------------------8-----------------------
    G--------0------0-------------0----------------------------
    D-----------------7------------------------------------------
    A--7---7-----7----------7---7-----------------------------
    E----7---------7----------7--------------------------------
    ...... unhoon hooon ..oon hoo..oon


    e------------------5----------5-5----------------------------
    B--------------------------------------------8-----8---8---8-
    G--------0----------------------------------0----------------
    D-----------------------------------------------------------
    A--7---7-----7---7------7---7--------7---7-----------------
    E----7---------7----------7-------------7---------7---7---7-
    ......hoo..oon oon hoo ... oon



    (base string)
    E--0-2-3-------------------------------------------------


    now stanza starts (!!)


    e----------------------5--------------------------5--------
    B----------0-----------0-------------0------------0-------
    G--------0-----------0-------------0------------0----------
    D------2-----------2-------------2------------2-------------
    A----2-----------3-------------2------------3---------------
    E--0-----------0-------------0------------0-----------------
    .. chandni muskuraye jab hawaa kuchh kahe ...


    e--------5--5--------2--------------5----------2------------
    B-----------5--------3------------5---5--------3------------
    G------2-----------2------------2------------2---------------
    D----2-----------0------------2------------0----------------
    A--0-----------0------------0------------0-------------------
    E-------------------------------------------------------------
    .. sumjho meri sadayein ..... hain tere saath mein


    e----------6----------15----------2--------------5-6-5----
    B-------10------------15----------3------------------5------
    G------------------15-----------2--------------2-----------
    D--7--8----8------0------------0--------------0------------
    A--------------0------------0--------------0------------------
    E------------------------------------------------------------
    .. jo ghanaa ho fizaa mein andheraaa..


    e--------6----------15------------5--3--2-----------------
    B-------------------------------5-------3-------------------
    G----------------15-----------2-----------------------------
    D------8-------0------------0-------------------------------
    A----5-------0------------0--------------------------------
    E--5---------------------------------------------------------
    .. laayenge hum savere .. tere liyeyyy .....



    e------------------------------7-7--5---------------------
    B------------------------------0-0--0--8-----------------
    G--------0--------0---------------------------------------
    D-------------------7--------------------------------------
    A--7---7------7----------7---7---------------------------
    E----7----------7----------7------------------------------
    .. le chale .. le chale . .


    e--------------------------5-------------------------------
    B------8--------------------8------------------------------
    G-------------0----------0---------------------------------
    D-----------------------------------------------------------
    A----7------7----------7----------------------------------
    E--8------7----------7------------------------------------
    .. yaadon ke ye kaafile


    e---------------------------7-7p5-------------------------
    B---------------------------------8-------------------------
    G------0-------0----------0-------------------------------
    D----------------7------------------------------------------
    A----7-------7----------7---------------------------------
    E--7-------7----------7------------------------------------
    .. jaayenge hum kahaan


    e----------------------------5-----------------------------
    B------8-------------------8---8------------8------------
    G-------------0----------0----------------0---------------
    D-----------------------------------------------------------
    A----7------7----------7----------------7----------------
    E--8------7----------7----------------7------------------
    .. yeh zameen aasmaan . . . milain



    e-7-----------------------------5--------------------------
    B-----------------------------8---8s5---------------------
    .. (Em) (C)
    ..... narm boondon ki rimjhim


    e-----------------------------5-----------------------------
    B---------------------------8-------------------------------
    G-------------------------5------5-4-2--------------------
    .. (Em) (C)
    .... pehli baarish ke din


    e---------5--------------------5----------------------------
    B-------8---8-------------7--8---5-------------------------
    G-----5-----------------------------------------------------
    .. (Am) (D)
    .... dopahar garmiyon ki


    e--------------------------------5--------------------------
    B----------------------------7-8---7-5-----11------------
    G--------------------------------------7--------------------
    .. (Am) (D)
    .... shaamein woh sard see


    e-------------------------------------------5--------------
    B---------------------------------------7-8----------------
    .. (A#) (C) (D)
    .... rut koi koi mausammm .. koi ghadiiii


    .. (A#) (C) (D)
    .... saath mein hum ko har dum tum paaogeyyyy



    e-----------------------------------------------------------
    B------------------------------------------------------------
    G------0----------------------------------------------------
    D------------------------------------------------------------
    A--7-------7-----------------------------------------------
    E----7-------7----------------------------------------------
    .. le chaley le chaleyyy (some faint
    notes on keyboard)


    e-----------------------------------------------------10--7--
    B--------------------------------------------------10--------
    G--------0-------0-----------0-------------0-----0---------
    D--------------------------7---------------------------------
    A--7---7-----7-------7---7-----------7---7-----9----------
    E----7---------7-------7---------------7--------------------

    e---------------------------------------------------
    B----8------------8----8------8----------8----------
    G-------------------------------------------5-5-4---
    D-------(repeat)---------------(repeat)-------------
    A---------------------------------------------------
    E--7------------7----7------8----------8------------
    .. (Em) (C)
    .... aahatein dheemee dheemee ...


    e----------------------------------------------------
    B----8------------8----8------8----------8-----------
    G-------------------------------------------5-4-2----
    D-------(repeat)---------------(repeat)--------------
    A----------------------------------------------------
    E--7------------7----7------8----------8-------------
    .. (Em) (C)
    .... teri aawaaz kii


    e-----------------------------------------------------
    B-------------------------7------7-8-10s8-7-5---------
    G-----------------------------------------------------
    .. (Am) (D)
    ... chhotee chhotee see baatein


    e---------------------------------------------------
    B------5--------------------------------------------
    G----5----------------------------------------------
    D--7------------------------------------------------
    A---------------------------------------------------
    E---------------------------------------------------
    .. (Am) (D)
    .... woh sharaarat bharee


    *(now no real arpeggiation..only faint picking of intermittent
    notes; so u can put

    in ur arp :D )

    .. (A#) (C) (D)
    .... un palon un lamhon kii jaadoogarii


    .. (A#) (C) (D)
    .... aaj bhi hain sanjoye .. dil mein mereyyyyyy





    :rock:
     
  5. Mudit Malhotra

    Mudit Malhotra BLOODY FINGERED

    @ nir nro did ya saw my bro nikhil on 1st december lol coZ i saw it n was after this song lol

    cheers
     
  6. .:SpY_GaMe:.

    .:SpY_GaMe:. New Member

    u mean this one
    http://www.indianguitartabs.com/showpost.php?p=123928&postcount=2
     
  7. aysh

    aysh -|h3 ori9in4| (ui!aris-|-

    hey xtremes thx dude for posting my tabs .. i am juss too layzee .. :yawn:
     
  8. vini

    vini Repeat Offender

    ^^ good..my rep saved for other people.

    i pref the Em one. & it sound alright..will try Am wala :think:
     
  9. abhimanjrekar

    abhimanjrekar ----> Zhol-Man<----

    na..Am wala is nice to hear....adlib kar ke baja...
     
  10. .:SpY_GaMe:.

    .:SpY_GaMe:. New Member


    no prob

    i included the link below ;unlike some who would take the credit for themselves lol ;)
     

Share This Page