[REQ] CHORDS for NA JANAY KYOON (OST SPIDERMAN II by Strings)

Discussion in 'Pakistani Guitar Tabs - Submit or Request' started by badullah, Aug 19, 2004.

  1. badullah

    badullah Dark Inside

    great song ..... want these chords asap... ne one
    thanks in advacne !
    aby.
     
  2. sumit

    sumit HaNdS uPPP!!

    chords plez
     
  3. Complicated

    Complicated New Member

    Na janayae kiyoon chords

    Have no worries people, cause your days of pleading are over.....I will paste those chords tomorow...i know all of them by heart , but it will take time writing them down on note pad with lyrics and i am so lazy that i will write them tomorow.... :p
     
  4. badullah

    badullah Dark Inside

    do it soooooooooooooooon :p
     
  5. badullah

    badullah Dark Inside

    kar bhi de post ab bhai !!
     
  6. Muz guitarist

    Muz guitarist New Member

    here comes 'na janay kion' by strings

    Hey!!! i hope this is one is most awaited !!!!!!!!!!!!!!!!!!!!!!!!!!!

    / = slide down
    h = hammer on
    v = bend

    E-------------------------------
    B-------------7-8-7------------
    G----7--7---9------9-7-9------
    D--9--9------------------------
    daykhoo kaisay parbat say badal gaye

    E--------------------------------
    B----7--------8/10---------------
    G--9--7-7----------7-9----------
    D----------------------9-9-------
    barsay gayy............yeh abb kahan

    E-------------------------------
    B-------------7-8-7------------
    G----7--7---9------9-7-9------
    D--9--9------------------------
    dakhoo kaisay pholoon say khushboo gayee

    E--------------------------------
    B----7--------8/10---------------
    G--9--7-7----------7-9----------
    D----------------------9-9-------
    mehkay gee........... yeh abb kahan


    note: 8/10 is the "filler" slide played in the song


    E---------------------------------------------------
    B--7-7-7-7--7-8--5-8---7-7-7-7--7-8--5-7/8-------
    G---------------------------------------------------
    D---------------------------------------------------
    sukh ban gaye sapnay sab khoo gayay apnay

    E--7-7-5-5/7--5-5-7-5v--5-5-7-5h7-5v-----------------
    B---------------------------------------5-8-8--8-------
    G-------------------------------------------------------
    D-------------------------------------------------------
    dil bujh gaya ghar jal gaya najanay kyun najanay kyun

    E--7-7-5-5/7--5-5-7-5v--5-5-7-5h7-5v------------------
    B---------------------------------------5-8-8--8--------
    G-------------------------------------------------------
    D-------------------------------------------------------
    yaddo ka phir aanchal ura najanay kyun najanay kyun

    E------------
    B--7-7-7-----
    G-----9------
    D------------
    najanay kyun

    guitaristhere@hotmail.com
     
  7. badullah

    badullah Dark Inside

    i need chords my man ... the rythem chords ....:eek:) thanks fer the tabs lekin :)
    cheerz
     
  8. invincible2k

    invincible2k New Member

    G C Am
    daykhoo kaisay parbat say badal gayay
    D C
    barsay gayy yeh abb kahan
    G C Am
    dakhoo kaisay pholoon say khushboo gayee
    D C
    mehkay gee yeh abb kahan

    D G
    sukh ban gaye sapnay
    D G
    sab khoo gayay apnay


    Em D
    dil bujh gaya ghar jal gaya
    Am C G
    najanay kyun na janay kyun

    Em D
    yaddo ka phir aanchal ura
    Am C G
    na janay kyun na janay kyun
    Am D
    najanay kyun najanay kyun


    G C Am
    daykhoo kaisay hathoon say jugnoo gayay
    D C
    chamkay gayy yeh abb kahan

    Guitar Solo
    D G
    kyun so gaye shamain
    D G
    kat na sakain raatien


    Em D
    dil bujh gaya ghar jal gaya
    Am C G
    najanay kyun na janay kyun

    Em D
    yadoon ka phir aanchal ura
    Am C G
    na janay kyun na janay kyun
    Am D
    najanay kyun najanay kyun
     
  9. badullah

    badullah Dark Inside

    thanks guys i really appreciate the effort !
     
  10. unsigned_rocker

    unsigned_rocker New Member

    wrong Chords
    Try This
    G Bm Em Em
    daykhoo kaisay parbat say badal gayay
    D C
    barsay gayy yeh abb kahan
    G Bm em me
    dakhoo kaisay pholoon say khushboo gayee
    D C
    mehkay gee yeh abb kahan
    D Cadd9
    sukh ban gaye sapnay
    D Cadd9
    sab khoo gayay apnay
     
  11. anshphenomenon

    anshphenomenon Rape me :boff:

    ^^^these r the perfect chords for this song...

    plz check the forum b4 making a request...
    loads of chords r available for this song..
    :beer:
     
  12. Orange Guitar

    Orange Guitar IGT's ALLROUNDER

    hey...i have posted the chords with the proper solo....check out the forum...if u r havin trouble in finding..i will post it here!
     

Share This Page