Req : Chords For Jeene Ke Ishare .. Phir Milenge

Discussion in 'Hindi Guitar Tabs - Submit or Request' started by adi, Jul 31, 2004.

  1. adi

    adi New Member

    Hey Guys Please Can Someday Give Me The Chords For Jene Ke Ishare From Phir Milenge .. I Knoe The Begining Tune But Dont Knoe The Chords Tht Comes After Tht . Thnx Alot
     
  2. gautam_njoy

    gautam_njoy New Member

    dude cud u plz post the tune that u knw..
    please luv that song...
    tabs is wat i want.. plzzz ;)

    and btw this site rockssss :rock:
     
  3. anujroy

    anujroy New Member

    Chords : Phir Milenge - Jeene Ke Ishaare

    PHIR MILENGE - JEENE KE ISHAARE [ chords ]


    E----------------------
    kuch khusbooein
    --------------------A--------------
    yaadon ke jungle se beh chaleen
    --------E--------
    kucchh khidkiyan
    ---------------------A-----------
    lamhon ke dastak pe khul gayee
    E------------------------
    kucch geet purane
    ---A-----------------
    rakhe the sirhaane
    --------C(pause)---------E------------A---------
    kucchh sun kaheen khoye the ...bandish mil gaye



    E---------A------------------
    jeene ke ishare mil gaye ....
    E----------A--------------E
    bicchde the kinaare mil gaye

    chorus

    E---------A------------------
    jeene ke ishare mil gaye ....
    E----------A--------------E
    bicchde the kinaare mil gaye
    x2


    (solo)

    (piano)
    D------------------------A----------------
    meri zindagiii ...mein teri baarish kya hui
    D--------------------------A--------------
    mere raaste dariya banee ...behne lagei
    E------------------------A----------------
    mere karvaton ko...toone aa ke kya chhooa
    -------C--------------E --------------------------------A
    kaee khwab neendon kee....




    E---------A------------------
    jeene ke ishare mil gaye ....
    E----------A--------------E
    bicchde the kinaare mil gaye
    x2

    (solo)





    anyone has the solo part ...the one played as the intro ???...
     
  4. Chirag

    Chirag New Member

    anyone has the solo part ...the one played as the intro ???...[/QUOTE]

    E-7-7-7/9-7-5-7---7-5-5-5-5/7--0----0-7-7-7/9-7-5-7


    i hope i am right . please correct me if i am wrong . i am a beginner n this is the first tune that i am found out myself.
     
  5. Chirag

    Chirag New Member

    Thanks ! i needed the song very badly.
     
  6. jatan

    jatan New Member

    hey anujroy can u plz tell me the strumming pattern of the song.anyway thanx for the song dude.
     
  7. MARS

    MARS Mars Ji...Finally!!!!!

    Nice work dude...

    :beer:
     
  8. anujroy

    anujroy New Member

    Strumming PAttern and solo

    its a little difficult to write down a strumming pattern ... but still

    down ---- down-up(mute) -----up-down-up(mute)---up-down-up(mute)---up-down-up(mute) ...and repeat the pattern !!!...

    i don't know if u'll be able to make out the pattern from this or not ... but another way is:-

    1) take a headphone and listen to the song very carefully, and trying yourself to figure out the pattern !!!...
    OR
    2) start playing the song in a slow rhythm with any pattern u want ... and after few times, u'll get the pattern right !!!...

    take care .





    and hey ...the solo part ....




    e---7-7-7h9-7-----7-7-------------------------------
    B--------------10------9-7--7h9---------------------
    G-9-----------------------------9-------------------
    D----------------------------------------------------
    A----------------------------------------------------
    E----------------------------------------------------




    e---7-7-7h9-7-----7-7--------------------------------
    B--------------10-------------------------------------
    G-9---------------------------------------------------
    D----------------------------------------------------
    A----------------------------------------------------
    E----------------------------------------------------



    sounds right !!!....
     
  9. jatan

    jatan New Member

    thanxs anujroy for ur advice. i always wanted to know how u people get the strumming right .i will try this from next time .i will try tonite ur strumming pattern towards this song and i hope i get it right. thanx buddy
     
  10. KannadaBoi

    KannadaBoi Kannadiga

    the solo is 100% accurate, but I'm still not able to get the strumming pattern right for the chords. They seem to work. Thanks a lot :rockon:
     
  11. hey ny1 has the tabs of this song???!!!???!!!
     
  12. my broz in luv and he's lissening 2 this song agn n agn... i think i'll make him jelous if i can play this : p
     
  13. anujroy

    anujroy New Member

    thanks a lot guyz ...
    take care.
     
  14. gautam_njoy

    gautam_njoy New Member

    that was awesome...
    hey i think it sounds gr8 when played down botton at
     
  15. gautam_njoy

    gautam_njoy New Member

    Higher tone

    e---9-9-9h11-9-----7-7-------------------------------
    B--------------12------11-9--9h11---------------------
    G-11-----------------------------11-------------------
    D----------------------------------------------------
    A----------------------------------------------------
    E----------------------------------------------------




    e---9-9-9h11-9-----9-9--------------------------------
    B--------------12-------------------------------------
    G-11---------------------------------------------------
    D----------------------------------------------------
    A----------------------------------------------------
    E----------------------------------------------------

    This sounds better... no doubt its perfectly as tabbed above juz dat i played it on a higher tone.. felt this matched.. wat say!!!
    Please give ur suggestion... :think:
    newaz thanks to this site and the tabbers i have learnt a lot.. thnx for this..
    This site roxxx :rockon:
     
  16. gonewiththeway

    gonewiththeway New Member

    thanks guys...u all rock!
     
  17. somesh cha

    somesh cha New Member

    can ne 1 temme
    ..wats d "h" for in d middle in d tabs...?
     
  18. fahim2003

    fahim2003 New Member

    great work guys..sounds great!
     
  19. satan_4_infinit

    satan_4_infinit New Member

    @somesh h is for hammer
    n @anuj roy ....nice chords...bangali rocks..keep up the gud work
     
  20. sheermelody

    sheermelody Pianist

    A few changes to the chord-set

    A few essential chords were missed in quite a few parts.


    Intro:
    |E---A-B-|E---A-B-|
    |E---A-B-|E---A-B-|

    Verse
    E--------------
    kuch khusbooein
    --------------------E--------------
    yaadon ke jungle se beh chaleen
    --------E--------
    kucchh khidkiyan
    ---------------------E-----------
    lamhon ke dastak pe khul gayee
    E----------------
    kucch geet purane
    ---A-------------
    rakhe the sirhaane
    --------C---------------D------C#m7----E-------
    kucchh sun kaheen khoye the ...bandish mil gayi

    Chorus
    E--------F#m--------------A----B---
    jeene ke ishare mil gaye (hum)
    E-------------F#m------------A----B---
    bicchde the kinaare mil gaye (hum)
    E---------F#m------------A-------------B-------------
    jeene ke ishare mil gaye bicchde the kinaare mil gaye
    E---------F#m------------A-------------B-------------
    jeene ke ishare mil gaye bicchde the kinaare mil gaye

    Interlude #1:
    |E---A-B-|E---A-B-|
    |E---A-B-|E---A-B-|
    |A---A---|E---B---| (Piano)
    |A---A---|E---B---|

    Stanza #1:
    -----Bm---------------------A--------------
    meri zindagiii ...mein teri baarish kya hui
    -----Bm-----------------------A--------E
    mere raaste dariya banee ...behne lagei
    -----G#m-----------------A---------------
    mere karvaton ko...toone aa ke kya chhooa
    -------C-----------D------C#m7----E------
    kaee khwab neendon kee... gali rehne lage

    Chorus
    E---------F#m------------A-------------B-------------
    jeene ke ishare mil gaye bicchde the kinaare mil gaye
    E---------F#m------------A-------------B-------------
    jeene ke ishare mil gaye bicchde the kinaare mil gaye

    Interlude #2:
    |E---A-B-|E---A-B-|
    |E---A-B-|E---A-B-|
    |E---D---|E---D---|

    Stanza #2: Same as Stanza #1

    Final verse:
    E--------------
    kuch khusbooein
    E-----------------------E----
    saanson se saanson mein ghul gayeein
    ------E---
    kuchh khidkiyan
    E-----------------------E----
    aankhon hi aankhon mein khul gayeein
    ------E-------------G#m (note this)
    kuchh pyaas adhuree
    ------A--------------
    kucch shaam sinduree
    ------C-----------Dsus2----C#m7----E-----------
    kuchh reshmi gunaahon mein raatein dhal gayeein

    Final chorus
    E--------F#m--------------A----B---
    jeene ke ishare mil gaye (bass-riff)
    E-------------F#m------------A----B---
    bicchde the kinaare mil gaye (bass-riff)
    E---------F#m------------A-------------B-------------
    jeene ke ishare mil gaye bicchde the kinaare mil gaye
    E-----------F#m--------------A-------------B
    bicchde the kinaare mil gaye


    Enjoy
     

Share This Page