req:chords for ghar se nikalte hi

Discussion in 'Hindi Guitar Tabs - Submit or Request' started by manu_jnc, Jun 29, 2005.

  1. manu_jnc

    manu_jnc New Member

    hi all
    well can anybody help me out to get the chords for the song
    ghar se nikalte hi, kuch duur chalte hi:
    movie: papa kehte hain, actor juggal hansraj.
    bye
    manu
     
  2. nik_bokacheley

    nik_bokacheley :help: I'm a mad :sadbye:

    Man.. can some1 plzz gimme the song chords. ?? Please... Or can some1 gimme the link to the chords???.. Thanks a lot..

    nIK!:nw:
     
  3. .:VinAY:.

    .:VinAY:. New Member

    mila kya ?
     
  4. folkpoet80

    folkpoet80 New Member

    Anyone to chord out this great ballad from 90s?
     
  5. folkpoet80

    folkpoet80 New Member

    I was trying to sing this song with really basic chords G & C. These are probably not correct, but someone who plays Guitar may advise.
    Gautam

    Click here to check it out
     
  6. sumankarki

    sumankarki New Member

    hi everyone

    i'm seeking lyrics n guitar chords of ghar se nikalte hi , if any one can help me out pls send it to my i;d sumanosho@hotmail.com .i'll b thankful for that kindhearted person
     
  7. jozko

    jozko Banned

    dude sumankarki welcome to the forum! You may remove mail ID by editing post above as ur mailbox can be spammed

    Wonderful song! awaiting chords.
    @folk wanna chk ur version, should be nice!, rgds
     
  8. vishweb

    vishweb VISH Rules...............

    Hey guys , i think this song is in Kalyan ragaaa

    so i can give a notations for this , plz check whether it's correct .. & do reply

    Kalyan raaga is in form of [ NI RE GA MA PA DHA NI SA ]

    Check out



    ghar se nikalte hi kuch door chalte hi
    g m g r g m mg p m m d d d S d p g p m

    raste mein hai uska ghar hmm hmm hmm
    S S S M G S dp p d S p m

    kal subah dekha to baal banaati woh
    g m g r g m g p m m d d S p g p m

    khidki mein aayi nazar hmmm hmmm hmm
    S S S M G S p p dd S p m


    Stanza

    Masoom chehra neechi nighahe
    d n R R R G R d n R S R S

    bholi si ladki bholi adaaye
    d n G R R G R d n R S R S

    na apsaraa hai na woh pari hai
    n3 n3 n3 n3 S n3 SS d n S n d d

    lekin yeh uski jaadugari hai
    d p d p p p p p p g r g m m m m

    diwana kar de woh ik rang bhar de woh
    g m g r g m mg p m m d d d S d p g p m

    sharma ke dekhe jidhar hmm hmm hmm
    S S S M G S p p p d d d S p m




    Tell me whether it's correct or not ........... bye
     
  9. vishweb

    vishweb VISH Rules...............

    I will give the chords in 2 days .... lets rock
     
  10. vini

    vini Repeat Offender

    if im not mistaken..this song is in key of Emajor!cant find d song..otherwise would've mentioned the scale wid affirmation..do try n then tell me
     
  11. basit_jaaaani

    basit_jaaaani I'm gUnnin' fer uuu

  12. vishweb

    vishweb VISH Rules...............

    I think the song is in FMajor ..........
     
  13. vini

    vini Repeat Offender

    that smashit media player sucks!!
    ok i could manage to listen in bits n pieces...it surely is in key of Emajor


    affirmatively! :)

    @vishwa
    just missed it by half step bro! tune ur guitar and play along..uL find it in Emaj only
     
  14. jozko

    jozko Banned

    thx for link jaani! The smashit player is much better than musicindia or raaga. good clarity and stereophonic, i think. I didn't hear any 'send money' Ads too this time :)
    Song seems lengthy. I just listened to the start of song and ended up with

    Code:
    Ghar se ni{E}kalte hi{G#m}
    Kuch door {B}chalte hi{E}
    Raste mein {B}hain uska ghar{E}  <=heard up to here
    
    Masoom cheh{C#m} - 
    strum - D udu D ud DU - similar to yeh jeevan he song it seems

    Code:
    vocal melody
    ---ghar------------kuch-----------
    e------------------------7---------
    B------------7-----9-7-9--7--/7---
    G--8-9-6-8-9---9----------------9-
    
    --rast--------------------------
    e-77--12-11-7------------------
    B-------------777-9------------
    chk if it sounds anywhere near.
     
  15. sanju_strings

    sanju_strings 50 Pai$e &lt;3V/S&lt;3 50 CeNt$

    post a video jozko .....


    anyways i shall try d above soon
     
    jozko likes this.
  16. jozko

    jozko Banned

    Sanju, will try to post the audio when chords are finalised by pros here. Nice cool easy song, seems
     
  17. vishweb

    vishweb VISH Rules...............

    Hey guys Check out tabs for this song ......

    coooooool song ....... i just love it




    Ghar se nikalte hi, kuch door chalte hi

    E------------------------------------------------------------
    B-------------------------------1----------------------------
    G---------------0--------2-0--2-----0-----0------------------
    D-2-3-2-0--2-3-----3-------------------2-----3---------------
    A------------------------------------------------------------
    E------------------------------------------------------------

    raste main hai uska ghar
    E--------1--0-----------------------------------------------
    B--1-1----------1----------------1--------------------------
    G--------------------2-0--0-2-------0------------------------
    D--------------------------------------3---------------------
    A------------------------------------------------------------
    E------------------------------------------------------------


    kal subah dekha to baal banati vo,
    E------------------------------------------------------------
    B-------------------------------1-----------------------------
    G---------------0--------2-0--2-----0-----0-------------------
    D-2-3-2-0--2-3-----3-------------------2-----3----------------
    A------------------------------------------------------------
    E------------------------------------------------------------


    khidki main aayi nazar
    E--------1--0-------------------------------------------------
    B--1-1----------1----------------1-----------------------------
    G--------------------2-0--0-2-------0-------------------------
    D--------------------------------------3----------------------
    A------------------------------------------------------------
    E------------------------------------------------------------

    music
    E------------------------------------------------------------
    B------0--1------------------0--1-----------------------------
    G---2--------2-0----0------2------2-0-------------------------
    D-----------------2-------------------2--3-------------------
    A------------------------------------------------------------
    E------------------------------------------------------------


    Ghar se nikalte hi ..

    Masoom chehra, neechi nigahain
    bholi se ladki , bholi aadayan
    E------------------------------------------------------------
    B----------3-3-3-3-----------3-3-3-2-------------------------
    G---2-3----------------2-3-----------------------------------
    D------------------------------------------------------------
    A------------------------------------------------------------
    E------------------------------------------------------------

    na apsara hai, na vo pari hai
    E------------------------------------------------------------
    B--0-0-0-0-1-0-1-----0--1-0---------------------------------
    G------------------2--------2--2-----------------------------
    D------------------------------------------------------------
    A------------------------------------------------------------
    E------------------------------------------------------------

    lekin yeh uski, jadoogari hai
    E------------------------------------------------------------
    B---------------------------------------------------------
    G---2-0-2-0-0-0-0--------------------------------------------
    D-------------------2-0-2/3-3-3-3----------------------------
    A------------------------------------------------------------
    E------------------------------------------------------------


    deewana kar de vo, ik rang bhar de vo
    E------------------------------------------------------------
    B-------------------------------1----------------------------
    G---------------0--------2-0--2-----0-----0------------------
    D-2-3-2-0--2-3-----3-------------------2-----3---------------
    A------------------------------------------------------------
    E------------------------------------------------------------

    sharma ke dekhe jidhar.
    E--------1--0-------------------------------------------------
    B--1-1----------1----------------1----------------------------
    G--------------------2-0--0-2-------0-------------------------
    D--------------------------------------3----------------------
    A------------------------------------------------------------
    E------------------------------------------------------------

    ghar se nikalte hi...

    Karta hoon uske, ghar ke main phere
    hansne lage hain, ab dost mere
    sach kah raha hoon, uski ki kasam hai
    main phir bhi khush hoon, bus ek gam hai
    jisse pyaar karta hoon, main jispe marta hoon
    usko nahi hai khabar.
    ghar se nikalte hi...

    Ladki hai jaise, koi paheli
    kal jo mili mujhko, uski saheli
    maine kaha usko, jake yeh kahna
    achha nahi hai, yoon door rahna
    kal shaam nikle vo, ghar se tahelne ko
    milna jo chahe agar.
    Ghar se nikalte hi ...
     
  18. jozko

    jozko Banned

    cool song cool work vishweb!
    original vid http://www.youtube.com/watch?v=HFwAzLhMcGw watch n fall in love
    my strum vid clip http://www.youtube.com/watch?v=KpSoOAaLmQQ listn n LOL :)

    @Sanju Iam sorry for delay. I may be out for 2-3 days. In the mean time can u send original mp3 to JIYA song? a link to my PM will do. i don't have soundclick a/c to download, i rather forgot a/c id n password :(
    If i don't go i'll give a try today based on streamed version. i can capture audio

    btb awaiting accurate chords to the song
     
  19. vishweb

    vishweb VISH Rules...............

    Hey nice one dude ........... it's sounds correct ........... u r rocking yaar .......keep it up
     
  20. ramanp_anand

    ramanp_anand New Member

    Hello everybody...I have logged onto this site today.....can someone give me the guitar chords of 'Ab to aadat si ho gayee hein jine mein' thanks.
     

Share This Page