Req: Chords for 'Angie' by Rolling Stones

Discussion in 'English Guitar Tabs - Submit or Request' started by apurbajd, Sep 2, 2005.

  1. apurbajd

    apurbajd ~#$&*$@*^$

    Can any1 plz post the tabs and chords for 'Angie' by Rolling Stones ..... I searched it in IGT but couldnt find ...if its there pls let me know the link....
     
  2. bjr

    bjr Lady of the Evening

    http://www.rockmagic.net/guitar-tabs/rolling-stones/angie.crd



    This seems to be a pretty decent tab. I've followed it but made slight modifications to the intro which are corresponding to the chords given so you should be able to figure it out...otherwise I'll give the tabs.


    It's a beautiful song...one of my favourites for sad moods. Also note that the initial structure is a lot like Hotel California.
     
  3. Kobain

    Kobain New Member

    i follow this.....seems amazing....not original...tooo lazy....but i guess this will help


    INTRO Am E7
    E -------0--0--1-1------------|--------0---------0----0------
    B -------1-----3-2-----1------|----0-3---3-0-----3-------0---
    G -------2----------2--2------|------------------4----------0
    D -------2----------------2-2-|------------------------------
    A -12-------------------------|------------------------------
    E ----------------------------|-0--------------4-------------
    Gsus4 Fsus4 F Fadd9/C C
    E --------3------------1---|----1-------------------------||
    B ----1-3---3-1--1--1----1-|-----------1--1---------0-----||
    G -0-------------3--2------|2----------0--0------------0--||
    D ---------------3--3------|--3--------3--2------0--------||
    A -------------------------|-------3----------2-----------||
    E -------------------------|------------------------------||


    VERSE
    Am E7/G# Gsus4
    E ------0---0---5-5-3---|----------0--3--0--0----|----------------
    B ------1---1---5-5-3-1-|----0--3-----0--3-----0-|-----3---3---3--
    G ------2---------------|----------------4-------|-----5---5---4--
    D --2-------------------|------------------------|-5-----------0--
    A --0-------------------|------------------------|----------------
    E ----------------------|-0----------------------|----------------
    Ang_ie Ang__ie when will those clo-

    Fsus4 F Fadd9/C C Am
    E ------------|-0--0--0---0----------------|--------------5-5-3----
    B -1---1------|-1--1--1---1----------1-----|------1--1----5-5-3-1--
    G -3---2------|-0--0--0---0--------------0-|------2--2-------------
    D- 3---3------|-3--3----3-0--(2)-----------|------2--2-2-----------
    A ---------3--|-------3----------------2---|-0---------------------
    E ------------|----------------------------|-----------------------
    uds all disappear___________________________ Ang__ie

    E7/G# Gsus4 Fsus4 F Fadd9/C
    E ----0--0----0-------0--|----------------------|----0----------
    B ----3----0----3-0-3---0|----3--3--3--1--1-----|---------------
    G ----4------------------|----5--5--4--3--2-----|-0--------0----
    D -----------------------|-5--------0--3--2-----|-3-----3--2----
    A -----------------------|--------------------3-|-3--------3----
    E -0---------------------|----------------------|---------------
    Ang_____ie Where will it lead us from here?______________
    CHORUS
    C Gadd9 G Dm Am
    E --0--0---||-5-5-5-5-5-5-5-5-5-5-5-3-3-3-3-3|-1--1-1-1-1-0-0-0-0-0-0
    B --1--1---||-3-3-3-3-3-3-3-3-3-3-3-0-0-0-0-0|-3--3-3-3-3-1-1-1-1-1-1
    G --0-----0||-0-0-0-0-0-0-0-0-0-0-0-0-0-0-0-0|-0--2-2-2-2-0-0-2-2-2-2
    D ---------||-0-0-0-0-0-0-0-0-0-0-0-0-0-0-0-0|-0--0-0-0-0-----2-2-2-2
    A ---------||--------------------------------|-----------------------
    E ---------||--------------------------------|-----------------------
    __ whit no lov-ing in __ our__ souls___ and no__ money in our coats___


    C F G
    E -0--0-0|-0--0-0-0-0-0-0-1--1-1-1-1-1-1|-3--5-5-5-5-3-3----5-3
    B -1--1-1|-1--1-1-1-1-1-1-1--1-1-1-1-1-1|-3--3-3-3-3-0-0----0-0
    G -2--2-2|-0--0-0-0-0-0-0-2--2-2-2-2-2-2|-0--0-0-0-0-0-0----0-0
    D -2--2-2|-2--2-2-2-2-2-2-3--3-3-3-3-3-3|-0--0-0-0-0-0-0----0-0
    A ----0-0|-3--3-3-3-3-3-3-3--3-3-3-3-3-3|-2--------------------
    E -------|----------------5--5-5-5-5-5-5|------------3-3-------
    You_ can__ say__ we´re sa-tis-fied,___________________________
    VERSE
    Am E7
    E -0-3-(5)-3-0-||------5-5-5-5-3-0--3--0|---0--0--0--0--0---0--0-----
    B -0----0--0-0-||--1---5-5-5-5-3-1--3--1|---3--3--3--3--3---2--3---3-
    G -0----0--0-0-||--2----------------3---|---4--4--4--4--4---3--4-----
    D -0----0--0-0-||--2--------------------|---0--0--0--0--0------------
    A -------------||--0--------------------|----------------------------
    E -------------||-----------------------|----------------------------
    _____ Oh ,But An-gie Ang______ie________

    Gsus4 Fsus4 F Fadd9 C Am
    E -|------------------------1--1--|-0----0--0---0--------|-------5-5-
    B -|------3--3--3--1--1-----1--1--|-1----1--1---1--------|-------5-5-
    G -|------5--4--4--3--2--0--------|-0----0--0---0--------|-----------
    D -|---------------3--3-----------|-3----3--0---2--------|-----------
    A -|------------------------------|---------3---3--------|-0---------
    E -|-3----------------------------|----------------------|-----------
    You can´t say we ne-ver tried____________________________ Ang__ie

    E7 Gsus4 Fsus4 F Fadd9/C
    E 5-3-0-|--------0----0-----0--0---|----------------------|-1------1-
    B 5-3-1-|------3----0-3--0--3--3---|----3--3--3--1--1--1--|-1------1-
    G ------|-------------4------------|-0--5--4--4--3--2--0--|---2--3-2-
    D ------|--------------------------|----5--5--5--3--3--3--|----------
    A ------|--------------------------|----------------------|----------
    E ------|-0------------------------|----------------------|----------
    you´re beatifull_______ yeah But ain´t it time we say good-bye_____________

    C Am E7
    E -0----0---------------|-----0---------5----5--3--0-|----------0----
    B -1----1---------------|-1-------1--1--5----5--3--1-|-------3------3
    G -0----0-------------0-|-2-------2--2---------------|-------4-------
    D ---0--0--2------------|-2--------------------------|---------------
    A -3---------------2----|-0--------------------------|---------------
    E ----------------------|----------------------------|--0------------
    _____________ Ang_____ie I still

    Gsus4 Fsus4 F Fadd9 C
    E --0---0--0--0-|-3-------------------|-1------1--1-0-0-0----0------|
    B --3---3--0--0-|-3--3--3--3--1--1----|-1------1--1-1-1-1----1------|
    G --4---4-------|-4--5--5--4--3--2--0-|-2--(3)--3-2-0-0-0----0------|
    D --0---0-------|-5--5--5--5--3--3----|-------------2-2-2----2-----0|
    A --------------|---------------------|-------------3-3-3----3--3---|
    E --------------|---------------------|-----------------------------|
    Lo__ve you remember all those nights we cried?___________________



    CHORUS
    Gadd9 G Dm Am C
    E -5-5-5-5-5-5-5-3-5-3---3-3|-1-1-1-1-0--1-1-1-1-1------|-0-3-3-3-3-
    B -3-3-3-3-3-3-3-3-3-3---0-0|-3-3-3-3-3--1-1-1-1-1------|-1-1-1-1-1-
    G -0-0-0-0-0-0-0-0-0-0---0-0|-2-2-2-2-2--2-2-2-2-2------|-0-0-0-0-0-
    D -0-0-0-0-0-0-0-0-0-0---0-0|-0-0-0-0-0--2-2-2-2-2------|-2-2-2-0-0-
    A --------------------------|------------0-0-0-0-0-0--2-|-3-3-3-3-3-
    E --------------------------|---------------------------|-----------
    We held__ so close___seemed to all _go up in smoke Let me
    VERSE
    F G Am
    E 3-3-1--1-1-3-3-3-1-|-3-5-5-5-0---5-3--1-5-5-3-3-||-0---5-5-5-5-5-3-
    B 1-1-1--1-1-1-1-1-1-|-0-0-0-0-0---0-0--0-0-0-0-0-||-1---5-5-5-5-5-3-
    G 0-0-2--2-2-2-2-2-2-|-0-0-0-0-0---0-0--0-0-0-0-0-||-2---------------
    D 2-2-3--3-3-3-3-3-3-|-0-0-0-0-2---0-0--0-0-0-0-0-||-----------------
    A 3-3----------------|----------------------------||-----------------
    E -------------------|----------------------------||-----------------
    whis___per in your ear,_________________ Angie

    E7 Gsus4 Fsus4
    E 1--|-------0---0--0---0--0----|--------------------|-1------0------
    B 0--|-------3---3--3---3--3--0-|-----3--3--3--1--1--|-1---3--1------
    G ---|-------4---4--4---4--4----|-----5--5--4--3--2--|-2---0--0------
    D ---|--------------6---6--6----|-----5--5--5--3--3--|-3---0--2------
    A ---|--------------------------|--------------------|--------3-----2
    E ---|-0------------------------|-3------------------|---------------
    An-gie Where will it lead us from here_____________

    E -------||
    B -------||
    G ---0-0-||
    D -------||
    A -------||
    E -------||
    Am E7 F C D Gsus4 Fsus4 G G#
    E 0---0--1-0-2---4-----1----3--4
    Oh angie dont you weep B 1---4--1-1-3---1-----1----0--1
    all your kisses still taste sweet G 2---1--2-0-2---0-----4----0--1
    You can say we´re satisfied D 2---0--3-2-0---0-----3----0--1
    But Angie, Angie A 0---2----3-----3-----1----2--2
    ain´t it time we said goodbuy E ----0----------2-----1----3--3
    Fadd9 Gadd9
    Whit no loving in our souls E --4----5-
    and no money in our coats B --1----3-
    You can say we´re satisfied G --2----4-
    But, Angie I still love you babe D --3----5-
    Everywhere i look i see your eyes A ---------
    E --------
    There ain´t woman that come close to you
    Come on baby dry your eyes
    Angie, Angie
    Ain´t it good to be alive
    Angie, Angie
    They can say we never tried
     

Share This Page