Req: Chords for 'Aajao Meri Tamanna' Movie: Ajab Prem Ki Ghazab Kahani

Discussion in 'Hindi Guitar Tabs - Submit or Request' started by rondude3011, Oct 15, 2010.

?

Which song in the movie do you think is the best?!

  1. Tu Jaane Na

    71.4%
  2. Aajao Meri Tamanna

    42.9%
  3. Prem Ki Naiyya

    14.3%
  4. Tera Hone Laga Hoon

    42.9%
Multiple votes are allowed.
  1. rondude3011

    rondude3011 New Member

    Help! Anyone can get me chords for
    Song: Aajao Meri Tamanna
    Movie Ajab Prem Ki Ghazab Kahani
    and if possible even the leads for it.. (before after antra/mukhda)
    Any reply is welcomed regarding the chords for any song of the movie except Tu Jaane Na.. cause I have already learnt it :)
    Thanks in advance.
     
  2. sujitagarwal

    sujitagarwal New Member

    INTRO :


    A F#m D E
    E |----0--------0--------0--------0--------0--------2--------0----------0-------|
    B |----0--0--------------0--0--------------0--0--------------0-------0----------|
    G |----2-----2-----------2-----2-----------2-----2-----------1--1h2--------1----|
    D |----2-----------------4-----------------0-----------------2------------------|
    A |----0-----------------4-----------------0-----------------2------------------|
    E |----------------------------------------------------------0------------------|



    A F#m D E
    E |---------9-7--9---------7/9-7--9-----------10-9--10-----12--12--7----|
    B |---------------------------------------------------------------------|
    G |----7h9-------------9------------------9-----------------------------|
    D |---------------------------------------------------------------------|
    A |---------------------------------------------------------------------|
    E |---------------------------------------------------------------------|



    CHORUS :

    A C#m
    Kaise batayein kyu tujhko chahein
    Bm E
    Yaara bata na paayein
    A C#m
    Baatein dilon ki dekho jo baaki
    Bm E
    Aankhein tujhe samjhayein

    A E
    Tu Jaane Naaaa aaaa
    A
    Tu Jaane Na
    A E
    Tu Jaane Naaaa aaaa
    A
    Tu Jaane Na



    BRIDGE :

    A E
    Mil ke bhi hum na mile
    F#m E
    Tumse na jaane kyu
    A D
    Milon ke hai faasle
    D E
    Tumse na jaane kyu

    A E
    Anjaane hai silsile
    F#m E
    Tumse na jaane kyu
    A D
    Sapne hai palkon tale
    D E
    Tumse na jane kyu



    CHORUS :

    A C#m
    Kaise batayein kyu tujhko chahein
    Bm E
    Yaara bata na paayein
    A C#m
    Baatein dilon ki dekho jo baaki
    Bm E
    Aankhein tujhe samjhayein

    A E
    Tu Jaane Naaaa aaaa
    A
    Tu Jaane Na
    A E
    Tu Jaane Naaaa aaaa
    A
    Tu Jaane Na



    VERSE :

    A D
    Nigahon me dekho meri jo hai bas gaya
    A
    Wo hai milta tumse hubahu
    A D
    Jaane teri aankhein thi ya baatein thi wajah
    A
    Hue tum jo dil ki aarzoo

    D
    Tum paas hoke bhi
    A
    Tum aas hoke bhi
    D
    Ehsaas hoke bhi
    A
    Apne nahi



    BRIDGE :

    A E
    Aise ho hum ko gile
    F#m E
    Tumse na jaane kyu
    A D
    Milon ke hai faasle
    D E
    Tumse na jaane kyu



    CHORUS :

    A E
    Tu Jaane Naaaa aaaa
    A
    Tu Jaane Na
    A E
    Tu Jaane Naaaa aaaa
    A
    Tu Jaane Na



    SOLO :

    A F#m D E
    E |---------0----------5--4-------------------------------------------|
    B |-----------------5--------5--------5/7\----------------------------|
    G |----4/6----------------------------------2----2--4/6--4-------1/2--|
    D |------------7----------------------------------------------2-------|
    A |-------------------------------------------------------------------|
    E |-------------------------------------------------------------------|


    A F#m D E A
    E |---------0----------5--4------------9\7\5--5/7--7-7/9----5/7-7--7--5--4--5-5----|
    B |-----------------5---------5----------------------------------------------------|
    G |----4/6-------------------------------------------------------------------------|
    D |------------7-------------------------------------------------------------------|
    A |--------------------------------------------------------------------------------|
    E |--------------------------------------------------------------------------------|



    VERSE :

    A D
    Khayalon me laakhon baatein yun to keh gaya
    A
    Bola kuch na tere saamne
    A D
    Hue na begaane bhi tum hoke aur ke
    A
    Dekho tum na mere hi bane

    D
    Afsos hota hai
    A
    Dil bhi ye rota hai
    D
    Sapne sanjota hai
    A
    Badla hua



    BRIDGE :

    A E
    Soche ye hum the mile
    F#m E
    Unse na jaane kyu
    A D
    Milon ke hai faasle
    D E
    Tumse na jaane kyu



    CHORUS :

    A C#m
    Kaise batayein kyu tujhko chahein
    Bm E
    Yaara bata na paayein
    A C#m
    Baatein dilon ki dekho zuban ki
    Bm E
    aankhein tujhe samjhayein

    A E
    Tu Jaane Naaaa aaaa
    A
    Tu Jaane Na
    A E
    Tu Jaane Naaaa aaaa
    A
    Tu Jaane Na



    Keep Repeating the "Tu Jaane Na" part.
    That's about it I guess. Might not be perfect but I've tried to get as close as I
    can to the original. Enjoy!!
     
  3. rondude3011

    rondude3011 New Member

    dude i asked for aajao meri tamanna not tu jaane na
     
  4. sanjay_fr92

    sanjay_fr92 New Member

    N still thx for the Tu jaane na ;-)
     

Share This Page