req. chord of song PAL by KK

Discussion in 'Hindi Guitar Tabs - Submit or Request' started by scorpionhai, Jan 5, 2005.

  1. scorpionhai

    scorpionhai New Member

    hizz yaar i want to perform song of KK and song name is PAL . can u plz send me the tabs and chord and stramming pattern of this songg ...... plzzzz sir my performance is on 12 jan plz.
     
  2. jayswami

    jayswami Blue J

    search this forum. u will get at least half a dozen hits.
     
  3. chordMinor

    chordMinor New Member

    Ha[E]m rahen ya na r[F#m]ahen kal
    K[A]al yaad aayenge ye pal
    P[E]al ye hain pyaar [F#m]ke pal
    Ch[A]al aa mere sang chal

    C[C#m]hal soche kya chhoti s[A]i hai jindagi
    k[C#m]al mil jaayen to hogi kh[A]ushnase[E]ebi

    Sh[Emaj7]am ka [Amaj7]aanchal l[Emaj7]e ke a[Amaj7]ayi
    L[Emaj7]e ke aa[Amaj7]yi dek[E]ho ye ra[A]at suhaani - repeat

    I apologise for the chord format. I used chordpro manager and this is the best it could do for me. :-(. If you havent got it already, the chords are written in appropriate spaces within square brackets. I dont have a guitar with me and written this by memory, so it might have a bit of inaccuracy. Also for you benefit i am producing two of the chord patterns used here


    E------------------------------------------
    A-------------------------------7-----------
    D-----------7-----------------6--------------
    G---------6-------------4--------------------
    B-------5---------------4--------------------
    E-----4-----------------4--------------------
    Amaj7 Emaj7
     
  4. Gai

    Gai New Member

    the chords are easy enuf to get....but what u never find is that beautiful solo...anyone have that?
     
  5. bhavna

    bhavna New Member

    hey i have started the song 4m G chrd i need the antara part anybody...............
     
  6. jazz_guitarguy

    jazz_guitarguy New Member

    The opening chords are arpeggiated E, A, B, C#m)
    E A
    Hum rahe ya na rahe kal
    A B
    Kal yaad aayenge yeh pal
    E A
    Pal, yeh hain pyaar ke pal
    A B
    Chal, aa mere sang chal
    C#m B
    Chal, soche kya
    A E
    Chhoti si hai zindagi
    C#m B A B
    Kal mil jaaye to hogi khushnaseebi
    E A B E
    Hum rahe ya na rahe, yaad aayenge yeh pal

    G#m A G#m A
    Shaam ka aanchal odhke aayi
    F#m B E
    Dekho voh raat suhaani
    G#m A G#m A
    Aa likh de hum donon milke
    F#m B
    Apni yeh prem kahaani
    Hum rahe ya na rahe, yaad aayenge yeh pal

    Aane waali subah jaane
    Rang kya laaye deewaani
    Meri chaahat ko rakh lena
    Jaise koi nishaani
    Hum rahe ya na rahe, yaad aayenge yeh pal__________________

    Dm F
    chal ... sochein kya ...
    Bb Gm F
    chhoti si hai zindagi


    Dm F
    kal ... mil jayee
    Bb Gm F
    to hogi .. khushnaseebi

    F Bb
    Hum rahein ya na rahein kal
    Gm F
    pal yaad ayenge Yeh pal





    E |------------------------------------------------------------------------|
    B |------------------------------------------------------------------------|
    G |--------------s-------s---------s--------s-----------s---------s--------|
    D |-----s--2----4/6-----4/6--4----6/7-----9/11--9-----4/6--4----2/4------|
    A |----2/4---4-----------------7------------------------------7-----------|
    E |------------------------------------------------------------------------|


    E |--------------------------------------------------|
    B |--------------------------------------------------|
    G |--------------s-------s---------s-------s---------|
    D |-----s--2----4/6-----4/6--4----6/7-----9/11--9---|
    A |----2/4---4-----------------7---------------------|
    E |--------------------------------------------------|


    E |----------------------------------------------------|
    B |----------------------------------------------------|
    G |------------4---------------------------------------|
    D |----4(h)6-6----4(h)6-4---------------2-----2---2---|
    A |-----------------------7-----2(h)4-4---4-----4-----|



    try ths n let me know.....cant say abut chords but i think the solo is gud...
     
  7. sayanakaharry

    sayanakaharry Forum Leader

    @jazz
    good work.
     

Share This Page