Req: Chalte Chalte Mere Yeh Geet - by Kishore Kumar

Discussion in 'Hindi Guitar Tabs - Submit or Request' started by DesiPride143, Oct 1, 2004.

  1. DesiPride143

    DesiPride143 BEHAVE!

    greetings everyone,
    i m back again for another request, please help me this time. The song is Chalte Chalte mere yeh geet by kishore, now i have the chords but i need the intro tabs...again tabs. i have tried tabbing it but no luck so i was wondering if any1 could help me with this one, it will be a great help.

    thanks a ton

    aziz
     
  2. pawandewri

    pawandewri New Member

    guitar chords for song chalte chalte from kishore kumar

    hi friends this is my first post in this site..........

    Em.......C........Em...............G..............
    challte chalte mere yeh geet yaad rakhna

    ........Em......D.....Bm...........G......Bm7..Em
    kabhi alvida na kahna,kabhi alvida na kahna

    E.............A...E.................A............C
    rotay hastay bus youn hee tum gun gunate rahna

    .........Em....D.......Bm
    kabhi alvida na kahna................................

    Em.......................................Am...........
    pyar karte karte hum tum kahin kho jayenge

    ..................D..Bm7.......................Em........
    inhi baharon ke aanchal mai thak kar so jayenge

    .....G..........Am7........D...........Bm7...Em
    sapno ko fir bhi tum youn hee jagate rahna

    ........Em.....D.......Bm
    kabhi alvida na kahna..................................


    originally the song is in F#m scale if u think u can sing in original scale just shift each chords 2 steps ahead i.e C TO D Em to F#m etc etc

    enjoy the song u will sure love it
     
  3. sDEVs

    sDEVs Inventor

    The chords aren't at the original scale...

    Just check out my Recording & Chords for the song Chalte Chalte below...

    Reviews expected...
     
  4. sDEVs

    sDEVs Inventor

    Recording at:: http://soundclick.com/share?songid=6110642

    Just try out these chords ::

    Gm------------------------D
    Chalte chalte mere ye geet yaad rakhna
    Gm------------F
    kabhi alvida na kehna x2

    G ------C -------G -----C----F------A#
    rote hanste bas tunhi tum gungunate rehna
    Gm--------------F
    kabhi alvida nahi kehna x2

    Gm--------------------Cm
    Beech raah mein dilbar bichad jaye kahin hum agar
    Cm ---------------------F --------Gm
    aur sooni si lage tumhein jeevan ki ye dagar
    Gm -------------------F ----------Gm
    hum laut aayenge tum yunhi bulate rehna

    Gm ---------------F
    kabhi alvida nahi kehna x2
     
  5. pawandewri

    pawandewri New Member

    hi i already said that choose the scale according to ur voice...originally song is in g minor scale
     
  6. Preet_31

    Preet_31 New Member

    Chalate Chalate

    E |-------------------------------------------------------
    b |-------------------------------------2--2----2-----2---
    g |---------2-2---------1---2-4----2-----------------4-----
    d |-4----4-------4---4------------------------------------
    a_|-------------------------------------------------------
    e_|-------------------------------------------------------

    f# f# a a f# f# g# ab a c#'c#' c#' b c#'
    chalate chalate, mere ye geet yaaad rakhanaa


    E |-----------------------------
    b |-----------------------------
    g |-----1---2--2--2--1----------
    d |-4-------------------4--4--2-
    a_|-----------------------------
    e_|-----------------------------

    f# g# a a a g# f# f# e
    kabhee alavidaa naa kahanaa


    E |--------------------------------------
    b |--------------------------------------
    g |--------2--2---4--1-----------2-1-----
    d |---------------------4--4--4-------4--
    a_|-4---4--------------------------------
    e_|--------------------------------------

    c# c# a a b g# f# f# f# a g# f#
    kabhee alavidaa naa kahanaaaaaaaaaaa


    E |------------------------------
    b |------2---------------2-------
    g |-2--2------4--2-2--2--------4-
    d |------------------------------
    a_|------------------------------
    e_|------------------------------

    a a c#' b a a a c#' b
    rote hanste, bas younhee tum


    E |------------------
    b |------------------
    g |----1--2-2--2-2-2-
    d |-4----------------
    a_|------------------
    e_|------------------

    f# g# a a a a a
    gungunaate rahnaa

    kabhee alvidaa na kahnaa.......

    E |--------------------------------------------------------------
    b |---------------------------------------------2----------------
    g |-------1-------2---2-2-2--------------1---2-------4--4---441--
    d |-4--4-----4--------------4---4----4---------------------------
    a_|--------------------------------------------------------------
    e_|--------------------------------------------------------------

    f# f# g# f# a a a a f# f# f# g# a c#' b b bbg#
    beech raaah mein dilbar, bichhad jaaen kaheen hum agar


    E |-----------------------------------------------------
    b |-----2----------2--------------------------3--2--2---
    g |-4-------4---4-----4---4-4-1-----1---2--4------------
    d |-----------------------------------------------------
    a_|-----------------------------------------------------
    e_|-----------------------------------------------------

    b c#' b b c#'b b b g# g# a b d' c#'c#'
    aur suunee si lage tumhain, jeevan kee ye dagar


    E |---------0----------------------------------------------
    b |-2--2--------3-2--3-------------------------------------
    g |--------------------4----2-----1--2------1--------------
    d |----------------------------4--------224---2---4--4--4--
    a_|--------------------------------------------------------
    e_|--------------------------------------------------------

    c#'c#' e' d'c#'d'b a f# g# a eef#g#e f# f# f#
    hum laut aaengey, tum yuunhee bulaatey rahanaa
     

Share This Page